Cifra Club

Aprenda

Lonely As You

Foo Fighters

Tablatura: Principal (guitarra)
tono: C
Tuned down one whole step: D G C F A d
        (Because if it was just dropped D the intro would be a pain to play.)

Note: Every dash = 8th note

3/3 time
Intro
d|---------------------------------------------------|
A|-------4-----------------------------6------5------|
F|-5-----5-----3-5-6-1-----1-3-5-5-----6------6------|
C|-6-----5-----4-----3-----2-----6-----6------6------|
G|-6-----3-----4-----3-----2-----6-----4------4------|
D|-4-----------2-----1-----0-----4-------------------|


4/4 time
Verse

Part A
d|------------------------------------------------------------------|
A|------------------------------------------------------------------|
F|------------------------------------------------------------------|
C|---------55555555-------------------------------------------------|
G|-6666666633333333444444443333333322222244666666668888888877777777-|
D|-44444444--------222222221111111100000022444444446666666655555555-|
   p.m. throughout

Part B
d|------------------------------------------------------------------|
A|------------------------------------------------------------------|
F|---------------------------------------------------------------66-|
C|---------55555555--------------------------------6666666666666666-|
G|-6666666633333333444444443333333322222244666666664444444444444444-|
D|-44444444--------22222222111111110000002244444444-----------------|
   p.m. --->                                                 ---/

Part C
d|--------------------------------------------------|
A|--------------------------------------------------|
F|--------------------------------------------------|
C|---------55555555----------------222224-6-xxx6----|
G|-66666666333333334444444433333333222224-6-xxx6----|
D|-44444444--------2222222211111111000002-4-xxx4----|
   p.m. --->                   ---/

Part D
d|------------------|
A|------------------|
F|------------------|
C|-222224-6-xxx6----|
G|-222224-6-xxx6----|
D|-000002-4-xxx4----|


Pre-Chorus

Guitar 1
d|---------------------------------|
A|---------------------------------|
F|---------------------------------|
C|-111111119-9-9-9-8-8-8-8-7-7-7-7-|
G|-111111119-9-9-9-8-8-8-8-7-5-5-5-|
D|-9-9-9-9-7-7-7-7-6-6-6-6-5-5-5-5-|

Guitar 2
d|-------/\------/\------/\--------|
A|-6-----96------96------96--------|
F|---------8-------7-------6-------|
C|---------------------------------|
G|---------------------------------|
D|---------------------------------|
   /\ = slide

Chorus
d|----------------------------------|
A|----------------------------------|
F|--------------------444---6662----|
C|-6665554443332---2224444446662----|
G|-6665554443332---2222224444440----|
D|-4443332221110---000---222--------|

Alternate Verse
d|--------------------------------------------------|
A|--------------------------------------------------|
F|---------5-5-5-5----------------------------------|
C|-6-6-6-6-5-5-5-5-4-4-4-4-3-3-3-3-222224-6-xxx6----|
G|-6-6-6-6-3-3-3-3-4-4-4-4-3-3-3-3-222224-6-xxx6----|
D|-4-4-4-4---------2-2-2-2-1-1-1-1-000002-4-xxx4----|


Solo

Guitar 1
d|------------------------------------------------------------------|
A|------------------------------------------------------------------|
F|-13------12------11------10------9----11-8-------10------9----11--|
C|------------------------------------------------------------------|
G|-11------10------9-------8-------7----9--6-------8-------7----9---|
D|------------------------------------------------------------------|

d|------------------------------------------------------------------|
A|------------------------------------------------------------------|
F|-13------12------11------10------9----11-8-------10------9--------|
C|------------------------------------------------------------------|
G|-11------10------9-------8-------7----9--6-------8-------7--------|
D|------------------------------------------------------------------|

Guitar 2
d|------------------------------------------------------------------|
A|------------------------------------------------------------------|
F|------------------------------------------------------------------|
C|-6-------10------4-------3-------2----4--6-------8----7--11-------|
G|------------------------------------------------------------------|
D|-4-------8-------2-------1-------0----2--4-------6----5--9--------|

d|------------------------------------------------------------------|
A|-13------13------11------9-------12---11-9-------13------13-------|
F|------------------------------------------------------------------|
C|-10------10------8-------6-------9----8--6-------11------11-------|
G|------------------------------------------------------------------|
D|------------------------------------------------------------------|

Outro
d|---------------------------------------------------------9--------|
A|-9-------9-------9-----7-10------9-------9-------9-----7-12>14----|
F|-11>13---11>13---11>13---12>14---11>13---11>13---11>13------------|
C|------------------------------------------------------------------|
G|------------------------------------------------------------------|
D|------------------------------------------------------------------|

d|-9-------9-------8-----7-10------9-------9-------8-----7-10-------|
A|-12>14---12>14---11>13---13>15---12>14---12>14---11>13---13>15----|
F|------------------------------------------------------------------|
C|------------------------------------------------------------------|
G|------------------------------------------------------------------|
D|------------------------------------------------------------------|
    > = bend
Composição de Foo Fighters
340 reproducciones
    • ½ Tono
    • A
    • Bb
    • B
    • C
    • Db
    • D
    • Eb
    • E
    • F
    • F#
    • G
    • Ab
  • Adicionar à lista

    0 comentarios

    Ver todos os comentários
    00:00 / 00:00
    outros vídeos desta música
    repetir qualidade Automático
    Outros vídeos desta música
    00:00 / 00:00
    Automático
    OK