Cifra Club

Aprenda

Marigold

Foo Fighters

Tablatura: Principal (guitarra)
tono: G
Versos
      E    C#               B    C
E|--0--0/0--0-0-0-0-0-0-0/0--0\0--0-0-0-0-0-0-0--||
B|--0--0/0--0-0-0-0-0-0-0/0--0\0--0-0-0-0-0-0-0--||
G|--9--9/6--6-6-6-6-6-6-6/4--4\5--5-5-5-5-5-5-5--||
D|--9--9/6--6-6-6-6-6-6-6/4--4\5--5-5-5-5-5-5-5--||
A|--7--7/4--4-4-4-4-4-4-4/2--2\3--3-3-3-3-3-3-3--||
E|-----------------------------------------------||

Refrão
      G5                 A5                 E5                 C#5
E|--------------------------------------------------------------------------|
B|--------------------------------------------------------------------------|
G|----------------------------------------9-9-9-9-9-9-9--9-x\6-6-6-6-6--6-x-|
D|--5-5-5-5-5-5-5--5-x/7-7-7-7-7-7-7--7-x-9-9-9-9-9-9-9--9-x\6-6-6-6-6--6-x-|
A|--5-5-5-5-5-5-5--5-x/7-7-7-7-7-7-7--7-x-7-7-7-7-7-7-7--7-x\4-4-4-4-4--4-x-|
E|--3-3-3-3-3-3-3--3-x/5-5-5-5-5-5-5--5-x-----------------------------------|

    C5                            D5
E|--------------------------------------||
B|--------------------------------------||
G|-5-5-5-5-5-5-5-5-5-5-5-5-5-5-5/7-x-7--||
D|-5-5-5-5-5-5-5-5-5-5-5-5-5-5-5/7-x-7--||
A|-3-3-3-3-3-3-3-3-3-3-3-3-3-3-3/5-x-5--||
E|--------------------------------------||


==================
=  Letra & Tempo =
==================

(Verso)

E5   C#5   B5        C5
He's there in case I wandered off

E5   C#5   B5        C5
He's scared because I warned

E5   C#5   B5        C5
He's scared in case I want it all

E5   C#5   B5        C5
He's scared 'cause I want


(Refrão)

G5             A5
All in all the clock is slow

E                  C#5
Six color pictures all in a row

C5              D5
Of a marigold
Composição de Dave Grohl
Colaboración y revision:
  • Jhuan Cunha
549 reproducciones
    • ½ Tono
    • A
    • Bb
    • B
    • C
    • Db
    • D
    • Eb
    • E
    • F
    • F#
    • G
    • Ab
  • Adicionar à lista

    0 comentarios

    Ver todos os comentários
    00:00 / 00:00
    outros vídeos desta música
    repetir qualidade Automático
    Outros vídeos desta música
    00:00 / 00:00
    Automático
    OK