Cifra Club

Aprenda

Milk

Foo Fighters

Tablatura: Principal (guitarra)
tono: C
(Normal Tuning)


Verse
e||---------------------------||
B||---------------------------||
G||------2-----2-----2-----2--||
D||--0-0----------------------||
A||--------2-2----------------||
E||--------------2-2---2-2----||


Chorus
e||--3-3-3-3-3-3-3--1-1-1-1-1-1-1---0-0-0-0-0-0-0------||
B||--3-3-3-3-3-3-3--1-1-1-1-1-1-1---0-0-0-0-0-0-0------||
G||--0-0-0-0-0-0-0--2-2-2-2-2-2-2---1-1-1-1-1-1-1-6-7--||
D||--0-0-0-0-0-0-0--3-3-3-3-3-3-3---2-2-2-2-2-2-2-6-7--||
A||--2-2-2-2-2-2-2--3-3-3-3-3-3-3---2-2-2-2-2-2-2-4-5--||
E||--3-3-3-3-3-3-3--1-1-1-1-1-1-1---0-0-0-0-0-0-0------||



_______________________________________________________
Contribuição: Rudá Medeiros Sudário()
43 reproducciones
    • ½ Tono
    • A
    • Bb
    • B
    • C
    • Db
    • D
    • Eb
    • E
    • F
    • F#
    • G
    • Ab
  • Adicionar à lista

    0 comentarios

    Ver todos os comentários
    00:00 / 00:00
    outros vídeos desta música
    repetir qualidade Automático
    Outros vídeos desta música
    00:00 / 00:00
    Automático
    OK