Cifra Club

Aprenda

Outside

Foo Fighters

Tablatura: Principal (guitarra)
tono: Em
E|--------------------------|
B|--------------------------|
G|-4---4---4---4---4---4----|
D|---5---5---5---5---5---5--|
A|--------------------------|
E|--------------------------|

(Baixo)
G|------------------------------------------------------------|
D|------------------------------------------------------------|
A|------------------------------------------------------------|
E|-5-5-5-8--8-8-0--0-3-0--0-3-0--5-5-5-8--8-8-0--0-3-0--0-0-0-|

Intro:

Gtr 1
E|------------------------------------------------------------------|
B|------------------------------------------------------------------|
G|------------------------------------------------------------------|
D|-7-7-7-10--10-10-2--2---2--2---2--7-7-7-10--10-10-2--2---2--2-2-2-|
A|-7-7-7-10--10-10-2--2---2--2---2--7-7-7-10--10-10-2--2---2--2-2-2-|
E|-5-5-5-8---8--8--0--0-3-0--0-3-0--5-5-5-8---8--8--0--0-3-0--0-0-0-|

Gtr 2
E|---------------------------------------------------------|
B|---------------------------------------------------------|
G|-----------------4---4----------------------------4------|
D|-------------------5---5----------------------------5----|
A|------------------------------------------------------5--|
E|---------------------------------------------------------|

Verso:

Gtr 1
E|----------0----------------------0----------|
B|-------1----1------0----------1----1------0-|
G|-----2-----------0---0------2-----------0-0-|
D|---2-----------2----------2-----------2-----|
A|-0----------------------0-------------------|
E|--------------------------------------------|

Gtr 2
E|---------------------------------------|
B|---------------------------------------|
G|-4h5p4--------4h5p4--------4h5p4-------|
D|-------7-5-7--------7-5----------7-5---|
A|------------------------7------------7-|
E|---------------------------------------|

Refrão:

Gtr 1
E|--------------------------------------------------------------------|
B|--------------------------------------------------------------------|
G|-7-7-7-7--7--7-7------------------------------------7-7-7-7--7--7-7-|
D|-7-7-7-7--7--7-7--7-7-7-7--7--7-7--2-2-2-2--2--2-2--7-7-7-7--7--7-7-|
A|-5-5-5-5--5--5-5--7-7-7-7--7--7-7--2-2-2-2--2--2-2--5-5-5-5--5--5-5-|
E|------------------5-5-5-5--5--5-5--0-0-0-0--0--0-0------------------|

E|----------------------------------------------------------------------------------------|
B|----------------------------------------------------------------------------------------|
G|-5-5-5-5--5--5-5------------------------------------7-7-7-9-9-9-11-11-11-12-12-12-14-16-|
D|-5-5-5-5--5--5-5--7-7-7-7--7--7-7--2-2-2-2--2--2-2--------------------------------------|
A|-3-3-3-3--3--3-3--7-7-7-7--7--7-7--2-2-2-2--2--2-2--5-5-5-7-7-7-9--9--9--10-10-10-12-14-|
E|------------------5-5-5-5--5--5-5--0-0-0-0--0--0-0--------------------------------------|

Gtr 2
E|----------------------------------------------------------|
B|-10---------------10---------------8----------------7-----|
G|-12b14------------12b14------------10b12------------9b11--|
D|----------------------------------------------------------|
A|----------------------------------------------------------|
E|----------------------------------------------------------|

E|------------------------------------------------------------------------------|
B|-13---------------15-------17------20--------20b22-22-22-22r20b22-22-22-22-22-|
G|-15b17------------17b19----19b21---22b24--------------------------------------|
D|------------------------------------------------------------------------------|
A|------------------------------------------------------------------------------|
E|------------------------------------------------------------------------------|

Breakdown:

Gtr 1
E|-----------------------------------|
B|-----------------------------------|
G|----5--4---------------------------|
D|----------5--4h5p4-----------------|
A|-0-----------------5--3h5p3-0------|
E|-------------------------------3b--|

Gtr 2
E|--------------------------------------|
B|----5--3--8--10h12p10-----------------|
G|----------------------11-12h14p12-----|
D|----------------------------------14--|  2x
A|--------------------------------------|
E|--------------------------------------|

E|---------------------------------------------------------------------------|
B|---------------------------------------------------------------------------|
G|-9-9-9-9-9-9-9-9-9-9-9-9-9-9-9-9-11-12-12-12-12-12-12-12-12-12-12-12-12----|
D|---------------------------------------------------------------------------|
A|-7-7-7-7-7-7-7-7-7-7-7-7-7-7-7-7-9--10-10-10-10-10-10-10-10-10-10-10-10----|
E|---------------------------------------------------------------------------|

E|---------------------------------------------------------------------------|
B|---------------------------------------------------------------------------|
G|-14-14-14-14-14-14-14-14-14-14-14-16-17-17-17-17-17-17-17-17-17-19-19-19---|
D|---------------------------------------------------------------------------|
A|-12-12-12-12-12-12-12-12-12-12-12-14-15-15-15-15-15-15-15-15-15-17-17-17---|
E|---------------------------------------------------------------------------|

E|-------------------------------------------|
B|-------------------------------------------|
G|-7-7-7-7--7-7-7-7--7-7-7-7--7-7-7-7--------|
D|-7-7-7-7--7-7-7-7--7-7-7-7--7-7-7-7--------|
A|-5-5-5-5--5-5-5-5--5-5-5-5--5-5-5-5----0---|
E|------------------------------------3b-----|

Solo:

E|----------------------------------5-----------10b12r10-8-7----------------|
B|------------------------------------5----------------------8--------------|
G|-7b9r7-5-7b9---7b9r7-5-7-----7b9------7b9--------------------9------------|
D|--------------------------------------------------------------------------|
A|--------------------------------------------------------------------------|
E|--------------------------------------------------------------------------|

E|-10b12-10b12-10b12-10h12-10h12-10h12-10h12-10b12r10-8----------------------|
B|------------------------------------------------------10-------------------|
G|---------------------------------------------------------------------------|
D|---------------------------------------------------------------------------|
A|---------------------------------------------------------------------------|
E|---------------------------------------------------------------------------|

Composição de Dave Grohl
Colaboración y revision:
  • Élison Duarte
501 reproducciones
  • Simplificar cifra
    • ½ Tono
    • Am
    • Bbm
    • Bm
    • Cm
    • C#m
    • Dm
    • Ebm
    • Em
    • Fm
    • F#m
    • Gm
    • G#m
  • Adicionar à lista

    0 comentarios

    Ver todos os comentários
    00:00 / 00:00
    outros vídeos desta música
    repetir qualidade Automático
    Outros vídeos desta música
    00:00 / 00:00
    Automático
    OK