Cifra Club

Aprenda

Razor

Foo Fighters

Tablatura: Principal (guitarra)
tono: G
Obs.: Depois de tocada cada nota dessas é imediatamente solta em "pull off" e depois de um toque 
na 6°corda afinada um tom acima(D).
      Assistindo ao video vi que o Dave da uma abafada nas notas *ele tira o dedo de cima*


intro, versos :
 
e|--------------|-----------------------------------------------------------------|
B|--------------|-----------------------------------------------------------------|
G|--------------|-----------------------------------------------------------------|
D|--------------|--------------4p0---7p0---12p0---11p0---14p0---12p0--------------|
A|---5h0--------|--4p0---7p0------------------------------------------------------|
D|-------0------|------0-----0-----0-----0------0------0------0------0------------|



refrão :

e|--------------------------------------------------------------------------------|
B|--------------------------------------------------------------------------------|
G|--------------------------------------------------------------------------------|
D|--7p0---7p0---7p0---7p0---7p0---7p0---7p0---6p0---6p0---6p0---6p0---6p0---6p0---|
A|--------------------------------------------------------------------------------|
D|------0-----0-----0-----0-----0-----0-----0-----0-----0-----0-----0-----0-----0-|

e|--------------------------------------------------------------------------------|
B|--------------------------------------------------------------------------------|
G|--------------------------------------------------------------------------------|
D|--9p0---7p0---5p0---4p0---5p0---7p0---9p0---7p0----7p0---7p0---7p0---7p0---7p0--|
A|--------------------------------------------------------------------------------|
D|-------0----0-----0-----0-----0-----0-----0-----0------0-----0-----0-----0----0-|

e|--------------------------------------------------------------------------------|
B|--------------------------------------------------------------------------------|
G|--------------------------------------------------------------------------------|
D|7p0--7p0--7p0--7p0--7p0--7p0--7p0--7p0--7p0--7p0--9p0--9p0--9p0--9p0--9p0--9p0--|
A|--------------------------------------------------------------------------------|
D|---0----0----0----0----0----0----0----0----0----0-----0----0----0----0----0---0-|

e|--------------------------------------------------------------------------------|
B|--------------------------------------------------------------------------------|
G|--------------------------------------------------------------------------------|
D|-9p0--7p0--5p0--4p0--5p0--7p0--9p0--7p0--7p0--7p0--7h0--7h0--7h0--7h0--7h0------|
A|--------------------------------------------------------------------------------|
D|----0----0----0----0----0----0----0----0-----0---0----0----0----0----0----0-----|



final :

e|-------------------------------|
B|-------------------------------|
G|-------------------------------|  
D|---10p0---9p0---7p0---9p0------| 2X
A|-------------------------------|
D|--------0-----0-----0-----0----|

e|-------------------------------------------------------------|
B|-------------------------------------------------------------|
G|-------------------------------------------------------------|  
D|---10p0---9p0---7p0---9p0---5p0---4p0---5p0---4p0---2p0------|
A|-------------------------------------------------------------|
D|--------0-----0-----0-----0-----0-----0-----0-----0-----0----|

e|-------------------------------|
B|-------------------------------|
G|-------------------------------|  
D|---10p0---9p0---7p0---9p0------| 2X
A|-------------------------------|
D|--------0-----0-----0-----0----|

e|------------------------------------------------------------------|
B|------------------------------------------------------------------|
G|------------------------------------------------------------------|  
D|---10p0---9p0---7p0---9p0---5p0---4p0---5p0---4p0---2p0---5p0-----|
A|------------------------------------------------------------------|
D|--------0-----0-----0-----0-----0-----0-----0-----0-----0-----0---|
Composição de Foo Fighters
Colaboración y revision:
  • Gustavo Vieira
790 reproducciones
    • ½ Tono
    • A
    • Bb
    • B
    • C
    • Db
    • D
    • Eb
    • E
    • F
    • F#
    • G
    • Ab
  • Adicionar à lista

    0 comentarios

    Ver todos os comentários
    00:00 / 00:00
    outros vídeos desta música
    repetir qualidade Automático
    Outros vídeos desta música
    00:00 / 00:00
    Automático
    OK