Cifra Club

Aprenda

Resolve

Foo Fighters

Tablatura: Principal (guitarra)
tono: D
Intro:

E|--------------------|
B|--------------------|
G|--------------------|
D|--5-5-5-5-5-5-5-----|
A|--5-5-5-5-5-5-5-----|
E|--2-3-2-3-2-3-2-----|

E|----------------------------------------------|
B|----------------------------------------------|
G|----------------------------------------------|
D|--11--7--9-----7--9-----------7--9--7------9--|
A|------------9--------7--9/10-----------10-----|
E|----------------------------------------------|

E|---------------------------------------------------------|
B|---------------------------------------------------------|
G|--------------------------------------9------------------|
D|--12--11--9--11--7--9--9--12--11--12-----12--7--9--7--9--|
A|---------------------------------------------------------|
E|---------------------------------------------------------|

E|--------------------|
B|--------------------|
G|--------------------|
D|--5-5-5-5-5-5-5-----|
A|--5-5-5-5-5-5-5-----|
E|--2-3-2-3-2-3-2-----|

Verso:
 A
Something that I felt today
 Em7
Something that I heard
  G
Swinging from the chandelier
 D
Hanging on your word
A
I remember watching you
Em7
Once upon a time
 G
Dancing from across the room
 D
In another life

Refrão:
(F# G)             A
A little bit of resolve
               Em7
Is what I need now
        D
Pin me down
         G
Show me how

A
Looking back to find my way
Em7
Never seemed so hard
G
Yesterday's been laid to rest
D
Changing of the guard
A
I would never change a thing
Em7
Even if I could
G
All the songs we used to sing
D
Everything was good

(Refrão)

Outro:
A
One more year that you're not here
Em7
Has gone and passed you by
D
What happened to you?
G
What happened to you?
A
One more tear that you won't hear
Em7
Has gone and passed you by
D
What happened to you?
G
What happened to you?
Composição de Foo Fighters
Colaboración y revision:
  • Bernardo
  • igor nery
  • Guilherme Rosa
1.549 reproducciones
    • ½ Tono
    • A
    • Bb
    • B
    • C
    • Db
    • D
    • Eb
    • E
    • F
    • F#
    • G
    • Ab
  • Adicionar à lista

    0 comentarios

    Ver todos os comentários
    00:00 / 00:00
    outros vídeos desta música
    repetir qualidade Automático
    Outros vídeos desta música
    00:00 / 00:00
    Automático
    OK