Cifra Club

Aprenda

Still

Foo Fighters

Tablatura: Principal (guitarra)
tono: F
Tuning: eBGDAE


These are the different parts of the song...


Verse
e||---------------||
B||---------------||
G||----0------0---||
D||---2------2----||
A||--3--3---1--1--||
E||---------------||

e||------------------||
B||------------------||
G||----0-----0-------||
D||------------------||
A||---6-----8--------||
E||--4--4--6--6------||


Then the Chorus part
e||-------------------||
B||-------------------||
G||----0-----0-----0--||
D||-------------------||
A||---6-----8-----3---||
E||--4--4--6--6--1--1-||

The end of the chorus
(I'm not quite sure but it's something like this, just mess a bit around with the chord)

e||-10--||
B||--8--||
G||--0--||
D||--7--||
A||-(0)-||
E||-----||

eh isso ae foonaticos!
Composição de Foo Fighters
Colaboración y revision:
  • Guilherme Rosa
259 reproducciones
    • ½ Tono
    • A
    • Bb
    • B
    • C
    • Db
    • D
    • Eb
    • E
    • F
    • F#
    • G
    • Ab
  • Adicionar à lista

    0 comentarios

    Ver todos os comentários
    00:00 / 00:00
    outros vídeos desta música
    repetir qualidade Automático
    Outros vídeos desta música
    00:00 / 00:00
    Automático
    OK