Cifra Club

Aprenda

Summers End

Foo Fighters

Tablatura: Principal (guitarra)
tono: G
Intro
e|------------0-|
B|------------3-|
G|------------2-|
D|------0---0---| X2
A|---0-3-3-0----|
E|-33-----------|

hold chord on second time
Verse (listen to song for strumming)
e|-------------------------------------|
B|-6p5-3------3h5p3-/6p5-3---3---3h5p3-|
G|-------5-2-5-------------5---5-------|
D|-------------------------------------|
A|-------------------------------------|
E|-------------------------------------|

e|---------0------3-----------------0-|
B|-6p5-3---1------3-----------------3-|
G|-------5-0------0-----------------2-|
D|---------2------0-----------0---0---|
A|---------3------2--------0-3-3-0----|
E|----------------3------33-----------|

e|-------------------------------------|
B|-6p5-3------3h5p3-/6p5-3---3---3h5p3-|
G|-------5-2-5-------------5---5-------|
D|-------------------------------------|
A|-------------------------------------|
E|-------------------------------------|

e|---------0------3-----------------0-|
B|-6p5-3---1------3-----------------3-|
G|-------5-0------0-----------------2-|
D|---------2------0-----------0---0---|
A|---------3------2--------0-3-3-0----|
E|----------------3------33-----------|

e|------------0--------------2-|
B|------------3--------------3-|
G|------------2--------------2-|
D|------0---0----------0---0---|
A|---0-3-3-0--------0-3-3-0----|
E|-33-------------33-----------|

Chorus:
(listen to the song for timing and strumming)
D Am C G (x2)

e|----------2-|
B|----------3-|
G|----------2-|
D|----0---0---|
A|---0-3-3-0--|
E|33----------|

D Am C G (x2)

e|------------0-|
B|------------3-|
G|------------2-|
D|------0---0---|
A|---0-3-3-0----|
E|-33-----------|

Verse
Chorus

Solo:
e|--------------------------------------------------------|
B|---15--13-15-------------------15--13-15----------------|
G|-14--14-----14-12------------14--14-----14-12--12--12---|
D|-----------------15-12-15-12-----------------15--15--15-|
A|--------------------------------------------------------|
E|--------------------------------------------------------|

e|--------------------------------------|
B|---15--13-15--18b(20)r18-15-13-1515~~-|
G|-14--14-------------------------------|
D|--------------------------------------|
A|--------------------------------------|
E|--------------------------------------|

e|------------------------------------------------|
B|------------------------------------------------|
G|15\14\12\10\7------15\14\12\10/1111/12/14-12\11-|
D|x \x \x \x \x------x \x \x \x /x x /x /x -x \x -|
A|13\12\10\8 \5------13\12\10\8 /9 9 /10/12-10\9 -|
E|------------------------------------------------|

e|-------------------------------------|
B|-------------------------------------|
G|15\14\12\10-141417141417141417141417-|
D|x \x \x \x --------------------------|
A|13\12\10\8 --------------------------|
E|-------------------------------------|

e|--------------------------------------------|
B|--------------------------------------------|
G|141417141417141417141417-14-12---12---------|
D|-------------------------------15--15-12-15-|
A|--------------------------------------------|
E|--------------------------------------------|

Chorus x2
Solo part (plays over chorus to end)

e|----------------------15/17-15-----------------------------|
B|--13-15-13---13-15-13---------18-17-13-13------------------|
G|14---------14----------------------------14-12--12---------|
D|----------------------------------------------15--15-12-15-|
A| ----------------------------------------------------------|
E|-----------------------------------------------------------|

end on
e|-0--
B|-3--
G|-2--
D|-0--
A|----
E|----
Composição de Foo Fighters
Colaboración y revision:
  • Jorge Miguel
232 reproducciones
    • ½ Tono
    • A
    • Bb
    • B
    • C
    • Db
    • D
    • Eb
    • E
    • F
    • F#
    • G
    • Ab
  • Adicionar à lista

    0 comentarios

    Ver todos os comentários
    00:00 / 00:00
    outros vídeos desta música
    repetir qualidade Automático
    Outros vídeos desta música
    00:00 / 00:00
    Automático
    OK