Cifra Club

Aprenda

T-Shirt

Foo Fighters

Tablatura: Principal (guitarra)
tono: G
[Primeira Parte]

E|--------------------------------|
B|---------3~~---0~~---1~~---1~~--|
G|--4~~----4~~---0~~---2~~---2~~--|
D|--5~~---(4)~---------2~~--------|
A|-(5)~----2~~---------0~~--------|
E|--3~~----------0~~---------2~~--|

E|--------------------0-~~-|
B|---------3~~---0~~-------|
G|--4~~----4~~---0~~-------|
D|--5~~---(4)~-------------|
A|-(5)~----2~~-------------|
E|--3~~----------0~~-------|

G
I don't wanna be king
Bm                Em
I just wanna sing a love song
Am                             Am/F#
  Pretend there's nothing wrong
                           G
You can sing along with me
                       Bm
I don't wanna be queen
                                 Em
Just trying to keep my t-shirt clean

 C       G
Aah Aah Aah Aah

[Refrão]

E|--1---1~~---1---1~~-|
B|--1---1~~---1---1~~-|
G|--0---0~~---0---0~~-|
D|--2---2~~---2---2~~-|
A|--3---3~~---3---3~~-|
E|--3---3~~---3---3~~-|

E|----------3~-|-3--3--3-|-2--2--2--0~-|-0--0--0-|
B|-1--1--1--0~-|-0--0--0-|-3--3--3--0~-|-0--0--0-|
G|-0--0--0--0~-|-0--0--0-|-4--4--4--0~-|-0--0--0-|
D|-2--2--2--0~-|-0--0--0-|-4--4--4--2~-|-2--2--2-|
A|-3--3--3--2~-|-2--2--2-|-2--2--2--2~-|-2--2--2-|
E|-0--0--0--3~-|-3--3--3-|----------0~-|-0--0--0-|

E|----------3~-|-3--3--3-|-2--2--2--0~-|-0--0--0--0--0--0--0--0-|-0--0--0--0--0--0--0--|
B|-1--1--1--0~-|-0--0--0-|-3--3--3--0~-|-0--0--0--0--0--0--0--0-|-0--0--0--0--0--0--0--|
G|-0--0--0--0~-|-0--0--0-|-4--4--4--0~-|-0--0--0--0--0--0--0--0-|-0--0--0--0--0--0--0--|
D|-2--2--2--0~-|-0--0--0-|-4--4--4--2~-|-2--2--2--2--2--2--2--2-|-2--2--2--2--2--2--2--|
A|-3--3--3--2~-|-2--2--2-|-2--2--2--2~-|-2--2--2--2--2--2--2--2-|-2--2--2--2--2--2--2--|
E|-0--0--0--3~-|-3--3--3-|----------0~-|-0--0--0--0--0--0--0--0-|-0--0--0--0--0--0--0--|

  C           G   Bm      Em
There's one thing I have learned
C        G
It gets much better
Bm                 Em
It's going to get worse

( Em )

Am                    F#m
And you get what you deserve

[Solo]

E|---------------------------------------------------|-----------------------|
B|--------------------------------------------15--15-|-----------------------|
G|--9--9--11--11---12--12---14--14---16--16---14--14-|-----------------------|
D|--9--9--11--11---12--12---14--14---16--16---12--12-|-14-12----12-----------|
A|--7--7---9---9---10--10---12--12---14--14----------|-------14-----14-12-10-|
E|---------------------------------------------------|-----------------------|

E|---------------------------|-----------0-0-0-0-0-0-0-0--|
B|---------------------------|-----------0-0-0-0-0-0-0-0--|
G|-5-------------------------|-4---------0-0-0-0-0-0-0-0--|
D|-5------5---5--------------|-4------4--2-2-2-2-2-2-2-2--|
A|-3--5/7-----5--------5h7-5-|-2--4/6----2-2-2-2-2-2-2-2--|
E|------------3--3h5/7-------|-----------0-0-0-0-0-0-0-0--|

[Parte Final]

E|-0-0-0-0~--0-0-0-|-0-0-0-0~--0-0-0-|
B|-1-1-1-1~--1-1-1-|-1-1-1-1~--1-1-1-|
G|-2-2-2-2~--2-2-2-|-2-2-2-2~--2-2-2-|
D|-2-2-2-2~--2-2-2-|-0-0-0-0~--0-0-0-|
A|-0-0-0-0~--0-0-0-|-x-x-x-x~--x-x-x-|
E|-----------------|-2-2-2-2~--2-2-2-|

Am                    F#m
And you get what you deserve

[Final]

E|-------------------|
B|--0~~---1~~---1~~--|
G|--0~~---2~~---2~~--|
D|--------2~~--------|
A|--------0~~--------|
E|--0~~---------2~~--|
Composição de Chris Shiflett / Pat Smear / Nate Mendel / Rami Jaffee / Taylor Hawkins / Dave Grohl
Colaboración y revision:
  • Erasmo Junior
  • Lucas Kappaun
82 reproducciones
    • ½ Tono
    • A
    • Bb
    • B
    • C
    • Db
    • D
    • Eb
    • E
    • F
    • F#
    • G
    • Ab
  • Adicionar à lista

    0 comentarios

    Ver todos os comentários
    00:00 / 00:00
    outros vídeos desta música
    repetir qualidade Automático
    Outros vídeos desta música
    00:00 / 00:00
    Automático
    OK