Cifra Club

Aprenda

The Feast And The Famine

Foo Fighters

Tablatura: Principal (guitarra)
tono: D
Intro:

E|-------0-------0-------0---------------0-------0-------0-------|
B|---7-------7-------7-------7-------3-------3-------3-------3---|
G|-8---8---8---8---8---8---8---8---4---4---4---4---4---4---4---4-|
D|---------------------------------------------------------------|
A|---------------------------------------------------------------|
E|---------------------------------------------------------------|1x

Verso (GTR 1)
That night they were burning for truth...
E|-------0-------0-------0---------------0-------0-------0-------|
B|---7-------7-------7-------7-------3-------3-------3-------3---|
G|-8---8---8---8---8---8---8---8---4---4---4---4---4---4---4---4-|
D|---------------------------------------------------------------|
A|---------------------------------------------------------------|
E|---------------------------------------------------------------|2x

Now what's a poor man left to do?
E|-------0-------0-------0---------------0-------0-------0-------|
B|---3-------3-------3-------3-------3-------3-------3-------3---|
G|-1---1---1---1---1---1---1---1---1---1---1---1---1---1---1---1-|
D|---------------------------------------------------------------|
A|---------------------------------------------------------------|
E|---------------------------------------------------------------|

Verso (GTR 2) (Palm mute)
One heart now broken in two...
E|-----------------------------------------------------------------|
B|-----------------------------------------------------------------|
G|-----------------------------------------------------------------|
D|-4-4-4-4-4-4-4-4-4-4-4-4-4-4-4---5-5-5-5-5-5-5-5-5-5-5-5-5-5-5---|
A|-6-6-6-6-6-6-6-6-6-6-6-6-6-6-6---7-7-7-7-7-7-7-7-7-7-7-7-7-7-7---|
E|-----------------------------------------------------------------|2x

Yesterday and today revolution on it's way
E|---------------------------------|
B|---------------------------------|
G|---------------------------------|
D|-9-9-9-9-9-9-9-9-9-9-9-9-9-9-9---|
A|-7-7-7-7-7-7-7-7-7-7-7-7-7-7-7---|
E|---------------------------------|

Refrão
Amen! It was the feast and famine
      Bm                   G                   D
E|------------------------------------------------------|
B|------------------------------------------------------|
G|---4--4-4-4-4---4-4-4-2-------------------------------|
D|---4--4-4-4-4---4-4-4-2-5--5-5-5-5-5-5-5-5--12-12-12--|
A|-0h2--2-2-2-2-0h2-2-2-0-5--5-5-5-5-5-5-5-5--12-12-12--|
E|------------------------3--3-3-3-3-3-3-3-3--10-10-10--|

Amen! It was the feast and famine
      Bm                   G                  A
E|------------------------------------------------------|
B|------------------------------------------------------|
G|---4--4-4-4-4---4-4-4-2-------------------------------|
D|---4--4-4-4-4---4-4-4-2-5--5-5-5-5-5-5-5-5/7-7-7-7-7--|
A|-0h2--2-2-2-2-0h2-2-2-0-5--5-5-5-5-5-5-5-5/7-7-7-7-7--|
E|------------------------3--3-3-3-3-3-3-3-3/5-5-5-5-5--|

Feast and the famine!
    E
E|----------------------------------------------|
B|----------------------------------------------|
G|----------------------------------------------|
D|-2--2-2-2-2-2-2-2-2-2-x-2--2-2-2-2-2-2-2-2-2--|
A|-2--2-2-2-2-2-2-2-2-2-x-2--2-2-2-2-2-2-2-2-2--|
E|-0--0-0-0-0-0-0-0-0-0-x-0--0-0-0-0-0-0-0-0-0--|


Verso 2
Crossroads with nothing to lose...
E|-----------------------------------------------------------|
B|-----------------------------------------------------------|
G|-4-4-4-4-4-4-4-4-4-4-4-4-4-4-------------------------------|
D|-4-4-4-4-4-4-4-4-4-4-4-4-4-4--5-5-5-5-5-5-5-5-5-5-5-5-5-5--|
A|-2-2-2-2-2-2-2-2-2-2-2-2-2-2--5-5-5-5-5-5-5-5-5-5-5-5-5-5--|
E|------------------------------3-3-3-3-3-3-3-3-3-3-3-3-3-3--|2x

          You look when I walk by
E|-----------------------------------------------------------|
B|-----------------------------------------------------------|
G|-----------------------------------------------------------|
D|-7-7-7--2--2-2-2-2-2-2-2-2-2-2---2--2-2-2-2-2-2-2-2-2-2-2--|
A|-7-7-7--2--2-2-2-2-2-2-2-2-2-2---2--2-2-2-2-2-2-2-2-2-2-2--|
E|-5-5-5--0--0-0-0-0-0-0-0-0-0-0-x-0--0-0-0-0-0-0-0-0-0-0-0--|

Refrão 

Breakdown (GTR 1)
E|--------------------------------------------------------------------|
B|--------------------------------------------------------------------|
G|--------------------------------------------------------------------|
D|--------------------------------------------------------------------|
A|-0h2-2-2-2-2-0h2-2-2-2-2-2-0h2-2---0h2-2-2-2-2-0h2-2-2-2-2-2-0h2-2--|
E|--------------------------------------------------------------------| 4x

And change will come
E|--------------------------------------------------|
B|--------------------------------------------------|
G|--------------------------------------------------|
D|-0-0-0-0-0-0-0-0-0h2-2-2-2-2-0h2-2-2-2-2-2-0h2-2--|
A|--------------------------------------------------|
E|--------------------------------------------------|

Is there anybody there?
E|--------------------------------------------------------------------|
B|--------------------------------------------------------------------|
G|--------------------------------------------------------------------|
D|-5-5-5-5-5-5-5-5-5-5-5-5-5-5-5-5-5-4-4-4-4-4-4-4-4-4-4-4-4-4-4-4-4--|
A|-7-7-7-7-7-7-7-7-7-7-7-7-7-7-7-7-7-6-6-6-6-6-6-6-6-6-6-6-6-6-6-6-6--|
E|--------------------------------------------------------------------| 3x

Breakdown (GTR 2)
E|-----------------------------------------------------|
B|-----------------------------------------------------|
G|-----------------------------------------------------|
D|-22222222-44444444-55555555-77777777-99999999--------|
A|-----------------------------------------------------|
E|-----------------------------------------------------|

E|-----------------------------------------------------|
B|-----------------------------------------------------|
G|-----------------------------------------------------|
D|-55555555-7777777-9999999-141414141414-131313131313--|
A|-----------------------------------------------------|
E|-----------------------------------------------------|

Intro/refrão/breakdown

Outro (GTR 1)
E|-5---0---5---7---5---0---5---7----|
B|---7---7---7---7---7---7---7---7--|
G|----------------------------------|
D|----------------------------------|
A|----------------------------------|
E|----------------------------------|6x

Outro (GTR 2)
E|--------------------------------------------------------------------|
B|--------------------------------------------------------------------|
G|---4-4-4---4-4-4---4-4---4-4-4---4-4-4---4-4---4-4-4---4-4-4---4-4--|
D|---4-4-4---4-4-4---4-4---4-4-4---4-4-4---4-4---4-4-4---4-4-4---4-4--|
A|-0h2-2-2-0h2-2-2-0h2-2-0h2-2-2-0h2-2-2-0h2-2-0h2-2-2-0h2-2-2-0h2-2--|
E|--------------------------------------------------------------------|

E|------------------------|
B|------------------------|
G|-4--4--4-4--4--4--4-4-4-|
D|-4--4--4-4--4--4--4-4-4-|
A|-2--2--2-2--2--2--2-2-2-|
E|------------------------|
Composição de Chris Shiflett / Dave Grohl / Nate Mendel / Pat Smear / Taylor Hawkins
Colaboración y revision:
  • Gabriel Assenheimer
350 reproducciones
    • ½ Tono
    • A
    • Bb
    • B
    • C
    • Db
    • D
    • Eb
    • E
    • F
    • F#
    • G
    • Ab
  • Adicionar à lista

    0 comentarios

    Ver todos os comentários
    00:00 / 00:00
    outros vídeos desta música
    repetir qualidade Automático
    Outros vídeos desta música
    00:00 / 00:00
    Automático
    OK