Cifra Club

The Sky Is A Neighborhood

Foo Fighters

Cifrado: Principal (guitarra y guitarra eléctrica)
tono: Em
[Intro] Em  B  G  A  C  Em  A  G

    Em      B        G        A     
E|------------------------------------------|
B|------8-----------------------------------|
G|--------9-----8--------4--------6---------|
D|----9-----------9--------5--------7-------|
A|--7---------9--------5--------7-----------|
E|----------7-------\3-------/5-------------|

    C         Em      A
E|------------------------------------------|
B|----------------8-------------------------|
G|-------9----------9-----6-----------------|
D|---------10---9-----------7---------------|
A|----10----------------7-------------------|
E|-/8---------0-------5---------------------|

[Primeira Parte]

   Em      B          G       A    
E|------------------------------------------|
B|-----8\-----------------------------------|
G|-----9\------8\------4\------6\-----------|
D|-----9\------9\------5\------7\-----------|
A|-7-7---------9\------5\------7\-----------|
E|---------7-7-----3-3-----5-5--------------|

   C        Em      A
E|------------------------------------------|
B|--------------8\--------------------------|
G|------9\------9\------6\------------------|
D|-----10\------9\------7\------------------|
A|-----10\--7-7---------7\------------------|
E|-8-8--------------5-5----5-5-0-3-0-3-0----|

              Em          B  G
The sky is a neighborhood
            A
So keep it down
C                  Em      A  G
  The heart is a storybook

A star burned out
              Em          B  G 
The sky is a neighborhood
              A
Don't make a sound
C               Em        
  Lights coming up ahead
 A             
Don't look now

[Pré-Refrão]

   Em          B           G
E|-12----12----11----11----10----10---------|
B|----12----12----12----12----12----12------|
G|------------------------------------------|
D|------------------------------------------|
A|------------------------------------------|
E|------------------------------------------|

   A         C            Em        A
E|-9----9----8----8-------------------------|
B|---12---12---12---12-12---12---10---10----|
G|------------------------9----9----9----9--|
D|------------------------------------------|
A|------------------------------------------|
E|------------------------------------------|

E|------------------------------------------|
B|-10---------------------------------------|
G|----9-------------------------------------|
D|------------------------------------------|
A|------------------------------------------|
E|-------0-3-0-3-0--------------------------|

      G       Em          B  G  A
The sky is a neighborhood
              C           Em
The sky is a neighborhood     
 A              G
Don't look now

[Refrão]

Em           B                    G  
Oh my dear, heaven is a big bang now
               A
Gotta get to sleep somehow
 C                     
Bangin' on the ceiling
 Em                      A            G
Bangin' on the ceiling, keep it down
Em           B                    G  
Oh my dear, heaven is a big bang now
               A
Gotta get to sleep somehow
 C                     
Bangin' on the ceiling
 Em                      A           G
Bangin' on the ceiling, keep it down

E|------------------------------------------|
B|------------------------------------------|
G|------------------------------------------|
D|------------------------------------------|
A|---------5h7------------------------------|
E|-0-3h5-0-----0----------------------------|

[Segunda Parte]

 Em        B    
Mind is a battlefield
G              A
  All hope is gone
C                 Em 
  Trouble to the right and left
A
  Whose side you're on?
  G              Em       B 
Thoughts like a minefield   
G              A
I'm a ticking bomb
C                   Em
  Maybe you should watch your step
 A
Don't get lost

[Pré-Refrão]

   Em          B           G
E|-12----12----11----11----10----10---------|
B|----12----12----12----12----12----12------|
G|------------------------------------------|
D|------------------------------------------|
A|------------------------------------------|
E|------------------------------------------|

   A         C            Em        A
E|-9----9----8----8-------------------------|
B|---12---12---12---12-12---12---10---10----|
G|------------------------9----9----9----9--|
D|------------------------------------------|
A|------------------------------------------|
E|------------------------------------------|

E|------------------------------------------|
B|-10---------------------------------------|
G|----9-------------------------------------|
D|------------------------------------------|
A|------------------------------------------|
E|-------0-3-0-3-0--------------------------|

      G       Em          B  G  A
The sky is a neighborhood
              C           Em
The sky is a neighborhood  
 A
Don't get lost

[Refrão]

Em           B                    G  
Oh my dear, heaven is a big bang now
               A
Gotta get to sleep somehow
 C                     
Bangin' on the ceiling
 Em                      A            G
Bangin' on the ceiling, keep it down
Em           B                    G  
Oh my dear, heaven is a big bang now
               A
Gotta get to sleep somehow
 C                     
Bangin' on the ceiling
 Em                      A           
Bangin' on the ceiling, keep it down

              C       Em  Bb  A
The sky is a neighborhood

( G  Gb  F )

 Em              B        G             A
Heart is a storybook, a star burned out
 C                  Em    A
Someone coming up ahead, don't look now

Em           B                    G  
Oh my dear, heaven is a big bang now
               A
Gotta get to sleep somehow
 C                     
Bangin' on the ceiling
 Em                      A            G
Bangin' on the ceiling, keep it down
Em           B                    G  
Oh my dear, heaven is a big bang now
               A
Gotta get to sleep somehow
 C                     
Bangin' on the ceiling
 Em                      A            G
Bangin' on the ceiling, keep it down

              Em           
The sky is a neighborhood 
              B                    G    
(Oh my dear, heaven is a big bang now
               A
Gotta get to sleep somehow)

              C             
The sky is a neighborhood 
 
(Bangin' on the ceiling
 Em                      A
Bangin' on the ceiling, keep it down)

( C  Em  Bb  A )

G  Gb       F
      The sky is a neighborhood

[Tab - Solo]

Parte 1

E|------------------------------------------|
B|--------------7-8-------------------------|
G|----------9-9-----9---7-------------------|
D|--------10----------9---8-----------------|
A|-/7-10--------------------8-5-/4----------|
E|------------------------------------------|

Parte 2

E|------------------------------------------|
B|------------------------------------------|
G|------------------------------------------|
D|------------------------------------------|
A|-5-7-9-10-9-------------------------------|
E|------------10-7-6-7-5-7------------------|
Composición de Christopher Shiflett / David Eric Grohl / Nathan Mendel / Oliver Hawkins / Pat Smear / Rami Jaffee
Colaboración y revisión:
  • Lucas Kappaun
  • Lautaro Scarpitta
  • Marcos Paulo
4.193 vistas
    • ½ Tono
    • Am
    • Bbm
    • Bm
    • Cm
    • C#m
    • Dm
    • Ebm
    • Em
    • Fm
    • F#m
    • Gm
    • G#m
  • Agregar a la lista

    0 comentarios

    Ver todos los comentarios
    00:00 / 00:00
    Outros vídeos desta música
    Repetir Calidad Automático
    Outros vídeos desta música
    00:00 / 00:00
    Automático
    OK