Cifra Club

Times Like These

Foo Fighters

Cifrado: Principal (guitarra y guitarra eléctrica)
Selo Cifra Club: esta cifra foi revisada para atender aos critérios oficiais da nossa Equipe de Qualidade.
tono: G
[Intro] D7(13)
        D5  C5  G/B
        D5  C5  G/B
        D5  C5  G/B
        D7(13)

[Tab - Intro]

E|------------------------------------------|
B|------------------------------------------|
G|-----------12-11-----------12-11----------| (8x)
D|-0-12-10-0-------0-12-10-0----------------|
A|---------------------------------12-10----|
E|------------------------------------------|

E|------------------------------------------|
B|------------------------------------------|
G|-----------12-11-----------12-11----------|
D|-0-12-10-0-------0-12-10-0----------------|
A|---------------------------------12-10-12\|
E|------------------------------------------|

[Primeira Parte]

[Tab - Primeira Parte]

   D
E|-------0--2----------0--2-----------------|
B|-----3------3-------------3---------------|
G|---2----------2----2----------------------|
D|-0---------------0------------------------|
A|------------------------------------------|
E|------------------------------------------|

   Am
E|-------3------0------3--------------------|
B|-----1----1------1------1-----------------|
G|---2--------2------2----------------------|
D|------------------------------------------|
A|-0------------------------2---------------|
E|------------------------------------------|

   C             Em
E|-------0-------------0--------------------|
B|-----1----1----------0--------------------|
G|---0--------0----0-----0---0--------------|
D|-------------------2-----2----------------|
A|-3----------------------------------------|
E|---------------0--------------------------|

   D7(13)
E|-5-5-5-5-5--5-5-5-5-5--5-5-5--------------|
B|-0-0-0-0-0--0-0-0-0-0--0-0-0--------------|
G|-5-5-5-5-5--5-5-5-5-5--5-5-5--------------|
D|------------------------------------------|
A|-0-5-5-0-5--0-5-5-0-5--0-5-5--------------|
E|------------------------------------------|

D                 Am
I, I'm a one way motorway
                  C
I'm a road that drives away
      Em               D7(13)
Then follows you back home

D                       Am
I, I'm a street light shining
                    C
I'm a white light blinding bright
 Em             D7(13)
Burning off and on

[Refrão 1]

[Tab - Refrão - Guitarra 1]

   C            Em7
E|------------------------------------------|
B|------------------------------------------|
G|-0-----0------0------0--------------------|
D|---5------5------5------5---5-------------|
A|-----3------3------7------7---------------|
E|------------------------------------------|

   D11
E|------------------------------------------|
B|------------------------------------------|
G|-------0----------------------------------|
D|---4-------4------------------------------|
A|-5---5---5---5----------------------------|
E|------------------------------------------|

[Tab - Refrão - Guitarra 2]

   C               Em7
E|------------------------------------------|
B|-8-8-8-8-8-8-8-8-8-8-8-8-8-8-8-8----------|
G|------------------------------------------|
D|-5-5-5-5-5-5-5-5-5-5-5-5-5-5-5-5----------|
A|------------------------------------------|
E|------------------------------------------|

   D11
E|------------------------------------------|
B|-7-7-7-7-7-7-7-7--------------------------|
G|------------------------------------------|
D|-4-4-4-4-4-4-4-4--------------------------|
A|------------------------------------------|
E|------------------------------------------|
      C
It's times like these
     Em7            D11
You learn to live again
      C
It's times like these
     Em7            D11
You give and give again
      C
It's times like these
     Em7            D11
You learn to love again
      C
It's times like these
 Em7            D7(13)
Time and time again

[Segunda Parte]

D                 Am
I, I'm a new day rising
                  C
I'm a brand new sky that
           Em          D7(13)
Hang the stars upon tonight

D                  Am
I, I'm a little divided
              C
Do I stay or run away
     Em             D7(13)
And leave it all behind?

[Refrão 2]

      C
It's times like these
     Em7            D11
You learn to live again
      C
It's times like these
     Em7            D11
You give and give again
      C
It's times like these
     Em7            D11
You learn to love again
      C
It's times like these
 Em7
Time and time again

( D5  C5  G/B )
( D5  C5  G/B )
( D5  C5  G/B )
( D5  C5  G/B )

[Tab - Interlúdio 1]

E|------------------------------------------|
B|------------------------------------------|
G|-----------12-11-----------12-11----------| (11x)
D|-0-12-10-0-------0-12-10-0----------------|
A|---------------------------------12-10----|
E|------------------------------------------|

E|------------------------------------------|
B|------------------------------------------|
G|-----------12-11-----------12-11----------|
D|-0-12-10-0-------0-12-10-0----------------|
A|---------------------------------12-10-12\|
E|------------------------------------------|

( D7(13) )

[Tab - Interlúdio 2]

E|------------------------------------------|
B|------------------------------------------|
G|-----------12-11-----------12-11----------| (4x)
D|-0-12-10-0-------0-12-10-0----------------|
A|---------------------------------12-10-12\|
E|------------------------------------------|

[Refrão 3]

      C
It's times like these
     Em7            D11
You learn to live again
      C
It's times like these
     Em7            D11
You give and give again
      C
It's times like these
     Em7            D11
You learn to love again
      C
It's times like these
 Em7            D11
Time and time again

      C
It's times like these
     Em7            D11
You learn to live again
      C
It's times like these
     Em7            D11
You give and give again
      C
It's times like these
     Em7            D11
You learn to love again
      C
It's times like these
 Em7            D11
Time and time again

      C
It's times like these
     Em7            D11
You learn to live again
      C
It's times like these
     Em7            D11
You give and give again
      C
It's times like these
     Em7            D11
You learn to love again
      C
It's times like these
 Em7            D11
Time and time again

[Final] C
Otros videos de esta canción
    1.719.428 exhibiciones
    • Simplificar cifrado
      • ½ Tono
      • A
      • Bb
      • B
      • C
      • Db
      • D
      • Eb
      • E
      • F
      • F#
      • G
      • Ab
    • Agregar a la lista

    Afinación de cifrado

    Afinador online

      Capítulos
      • Tocando a música
      • Dicas Iniciais / Equipamentos
      • Acordes da Introdução
      • Tocando a Introdução
      • Ritmo da Introdução
      • Riff da Introduçãp
      • Acordes da Primeira Parte
      • Tocando a Primeira Parte
      • Primeira Parte - Parte 1 de 4
      • Primeira Parte - Parte 2 de 4
      • Primeira Parte - Parte 3 de 4
      • Primeira Parte - Parte 4 de 4
      • Acordes do Refrão
      • Tocando o Primeiro Refrão
      • Ritmo do Refrão
      • Riff do Refrão - Clean
      • Riff do Refrão - Oitavado
      • Dicas 2
      • Tocando Segunda Parte - Interlúdio
      • Dicas 3
      • Tocando Terceiro Refrão - Final
      • Encerramento
      • Ficha Técnica
      OK