Cifra Club

Times Like These

Foo Fighters

Tablatura: Guitarra (guitarra)
Já pensou em usar uma coleção de roupas do Cifra Club? Responda as perguntas abaixo e nos ajude nessa missão! →
tono: G
Introdução: D7(13)

(Riff da Introdução)

E|-----------------------------------------------------|
B|-----------------------------------------------------|
G|-----------12-11-----------12-11---------------------| (2x)
D|-0-12-10-0-------0-12-10-0---------------------------|
A|---------------------------------12-10---------------|
E|-----------------------------------------------------|

E|-----------------------------------------------------|
B|-----------------------------------------------------|
G|-----------12-11-----------12-11---------------------|
D|-0-12-10-0-------0-12-10-0---------------------------|
A|---------------------------------12-10-12\-----------|
E|-----------------------------------------------------|


Primeira Parte:

   D
E|-------0--2----------0--2-----------------|
B|-----3------3-------------3---------------|
G|---2----------2----2----------------------|
D|-0---------------0------------------------|
A|------------------------------------------|
E|------------------------------------------|
   Am
E|-------3------0------3--------------------|
B|-----1----1------1------1-----------------|
G|---2--------2------2----------------------|
D|------------------------------------------|
A|-0------------------------2---------------|
E|------------------------------------------|
   C             Em
E|-------0-------------0--------------------|
B|-----1----1----------0--------------------|
G|---0--------0----0-----0---0--------------|
D|-------------------2-----2----------------|
A|-3----------------------------------------|
E|---------------0--------------------------|
   D7(13)
E|-5-5-5-5-5--5-5-5-5-5--5-5-5--------------|
B|-0-0-0-0-0--0-0-0-0-0--0-0-0--------------|
G|-5-5-5-5-5--5-5-5-5-5--5-5-5--------------|
D|------------------------------------------|
A|-0-5-5-0-5--0-5-5-0-5--0-5-5--------------|
E|------------------------------------------|

D                 Am
I, I'm a one way motorway
                  C
I'm a road that drives away
      Em               D7(13)
Then follows you back home

D                       Am
I, I'm a street light shining
             C
I'm a white light blinding bright
 Em             D7(13)
Burning off and on


Primeiro Refrão:

   C            Em7
E|------------------------------------------|
B|------------------------------------------|
G|-0-----0------0------0--------------------|
D|---5------5------5------5---5-------------|
A|-----3------3------7------7---------------|
E|------------------------------------------|
   D11
E|------------------------------------------|
B|------------------------------------------|
G|-------0----------------------------------|
D|---4-------4------------------------------|
A|-5---5---5---5----------------------------|
E|------------------------------------------|

      C
It's times like these
     Em7            D11
You learn to live again
      C
It's times like these
     Em7            D11
You give and give again
      C
It's times like these
     Em7            D11
You learn to love again
      C
It's times like these
 Em7            D7(13)
Time and time again


Segunda Parte:

D                 Am
I, I'm a new day rising
                  C
I'm a brand new sky that
           Em          D7(13)
Hang the stars upon tonight

D                  Am
I, I'm a little divided
              C
Do I stay or run away
     Em             D7(13)
And leave it all behind?


Segundo Refrão:

      C
It's times like these
     Em7            D11
You learn to live again
      C
It's times like these
     Em7            D11
You give and give again
      C
It's times like these
     Em7            D11
You learn to love again
      C
It's times like these
 Em7
Time and time again


Interlúdio:
(Clean)
E|-----------------------------------------------------|
B|-----------------------------------------------------|
G|-----------12-11-----------12-11---------------------|  (8x)
D|-0-12-10-0-------0-12-10-0---------------------------|
A|---------------------------------12-10---------------|
E|-----------------------------------------------------|

E|-----------------------------------------------------|
B|-----------------------------------------------------|
G|-----------12-11-----------12-11---------------------|
D|-0-12-10-0-------0-12-10-0---------------------------|
A|---------------------------------12-10-12\-----------|
E|-----------------------------------------------------|

(Drive)

E|-----------------------------------------------------|
B|-----------------------------------------------------|
G|-----------12-11-----------12-11---------------------|  (4x)
D|-0-12-10-0-------0-12-10-0---------------------------|
A|---------------------------------12-10-12\-----------|
E|-----------------------------------------------------|


Terceiro Refrão:

      C
It's times like these
     Em7            D11
You learn to live again
      C
It's times like these
     Em7            D11
You give and give again
      C
It's times like these
     Em7            D11
You learn to love again
      C
It's times like these
 Em7            D11
Time and time again

      C
It's times like these
     Em7            D11
You learn to live again
      C
It's times like these
     Em7            D11
You give and give again
      C
It's times like these
     Em7            D11
You learn to love again
      C
It's times like these
 Em7            D11
Time and time again

Final:
      C
It's times like these
     Em7            D11
You learn to live again
      C
It's times like these
     Em7            D11
You give and give again
      C
It's times like these
     Em7            D11
You learn to love again
      C
It's times like these
 Em7            D11
Time and time again

( C )
Composição de Dave Grohl
Colaboración y revision:
  • Vinícius Dias
  • Igor Guilherme
338 reproducciones
    • ½ Tono
    • A
    • Bb
    • B
    • C
    • Db
    • D
    • Eb
    • E
    • F
    • F#
    • G
    • Ab
  • Adicionar à lista

    0 comentarios

    Ver todos os comentários
    00:00 / 00:00
    outros vídeos desta música
    repetir qualidade Automático
    Outros vídeos desta música
    00:00 / 00:00
    Automático
    Capítulos
    • Tocando a música
    • Dicas Iniciais / Equipamentos
    • Acordes da Introdução
    • Tocando a Introdução
    • Ritmo da Introdução
    • Riff da Introduçãp
    • Acordes da Primeira Parte
    • Tocando a Primeira Parte
    • Primeira Parte - Parte 1 de 4
    • Primeira Parte - Parte 2 de 4
    • Primeira Parte - Parte 3 de 4
    • Primeira Parte - Parte 4 de 4
    • Acordes do Refrão
    • Tocando o Primeiro Refrão
    • Ritmo do Refrão
    • Riff do Refrão - Clean
    • Riff do Refrão - Oitavado
    • Dicas 2
    • Tocando Segunda Parte - Interlúdio
    • Dicas 3
    • Tocando Terceiro Refrão - Final
    • Encerramento
    • Ficha Técnica
    OK