Cifra Club

Aprenda

Wattershed

Foo Fighters

Tablatura: Principal (guitarra)
tono: G
(½ Step Down Tuning)


Intro/Verse
e||-------------------------------------------------||
B||-------------------------------------------------||
G||-------------------------------------------------||
D||--7/9---9---9---9---9---7/9---9---9---9----10\9--||
A||--7/9---9---9---9---9---7/9---9---9---9----10\9--||
E||--5/7---7---7---7---7---5/7---7---7---7-----8\7--||
     Stick  it  to  the  mail - man...

                                  
Pre-Chorus
e||--------------------|--------------------|
B||--------------------|--------------------|
G||--------------------|-9----9--9----9--9--|
D||--5----5--5----5--5-|-9----9--9----9--9--|
A||--5----5--5----5--5-|-7----7--7----7--7--|
E||--3----3--3----3--3-|--------------------|
        Take that to the man   you call the

e|--------------------|---------------------|
B|--------------------|---------------------|
G|--------------------|---------------------|
D|-9----9--9----9--4--|--------4-----4------|
A|-9----9--9----9--4--|--------4-----4------|
E|-7----7--7----7--2--|--------2-----2------|
   chair

e|-------------------------||
B|-------------------------||
G|-------------------------||
D|-7--7--7--7--7--7--------||
A|-7--7--7--7--7--7--------||
E|-5--5--5--5--5--5--------||
   Pissin' on a wet wall.

  
Chorus
e||--------------------------------------|------------------------------------|
B||--------------------------------------|------------------------------------|
G||------------10----10------------------|-7------7--10----10-----------------|
D||--7------7--10----10--9----------9--9-|-7------7--10----10--7---------7--7-|
A||--7------7---8-----8--9----------9--9-|-5------5---8-----8--7---------7--7-|
E||--5------5------------7----------7--7-|---------------------5---------5--5-|
                        Hey there boy you been catchin' the black widow.

e|---------------------------------------|---------||
B|---------------------------------------|---------||
G|-----------1------1--------------------|---------||
D|-7------7--1------1--9------------9--9-|-9-------||
A|-7------7--8------8--9------------9--9-|-7----9--||
E|-5------5------------7------------7--7-|------7--||
         That's what we want you to know.


Bridge
e||-------------------------------------------------------||
B||-------------------------------------------------------||
G||-------------------------------------------------------||
D||----------------------------------------------------5--||
A||----------------------------------------------------5--||
E||--3---2---2---2---1---2---2---1---2---2---3---------3--||
         I  want to swim in  a water - shed...



_______________________________________________________
Contribuição: Rudá Medeiros Sudário()
Composição de Dave Grohl
91 reproducciones
    • ½ Tono
    • A
    • Bb
    • B
    • C
    • Db
    • D
    • Eb
    • E
    • F
    • F#
    • G
    • Ab
  • Adicionar à lista

    0 comentarios

    Ver todos os comentários
    00:00 / 00:00
    outros vídeos desta música
    repetir qualidade Automático
    Outros vídeos desta música
    00:00 / 00:00
    Automático
    OK