Cifra Club

Aprenda

What If I Do

Foo Fighters

Tablatura: Principal (guitarra)
tono: C
E|-------------------------------------------------------3--3-3--3-3-3--|
B|-------------------------------------------------------3--3-3--3-3-3--|
G|------0-----2-----4-----2-----0-----2-----4-------0----0--0-0--0-0-0--|
D|---------------------------------------------0h2-------2--2-2--2-2-2--|
A|---3-----3-----3-----3-----3-----3-----3---------------3--3-3--3-3-3--|
E|-------------------------------------------------------x--x-x--x-x-x--|

F
Back and forth that voice of yours
C
that keeps me up at night
F
Help me search to find the words
C
that eat you up inside
F
I go side to side like the wildest tides in your hurricane
C
and I only hide what is on my mind because I can't explain

REFRÃO
          A#                 Am
What if I do, lord, what if I don't
             G#                      C
I'd have to lose everything just to find you
          A#                 Am
What if I do, lord, what if I don't
             G#                      C
I'd have to lose everything just to find you

F
It's my turn this soul won't burn
C
so throw me in the fire
F
Trophies earned and lessons learned
C
wicked little lies
F
We could pave new roads with the cold gravestones
C
wind them through the pines
F
Should I stay or should I go alone
C
I cannot decide

REFRÃO
          A#                 Am
What if I do, lord, what if I don't
             G#                      C
I'd have to lose everything just to find you
          A#                 Am
What if I do, lord, what if I don't
             G#                      C
I'd have to lose everything just to find you

C         G   F
Carolina, Caroline
C         G   F
Carolina, Caroline

SOLO


E|----5-7b-5-7-3-5b-3-5-3------3-5-5-3
B|-----------------------5b-3-5-------
G|------------------------------------
D|------------------------------------
A|------------------------------------
E|------------------------------------

E|----5-7b-5-7-3-5b-3-5-3------3-5-5-3----
B|-----------------------5b-3-5--------5-3
G|----------------------------------------
D|----------------------------------------
A|----------------------------------------
E|----------------------------------------


REFRÃO
          A#                 Am
What if I do, lord, what if I don't
             G#                      C
I'd have to lose everything just to find you
          A#                 Am
What if I do, lord, what if I don't
             G#                      C
I'd have to lose everything just to find you

C         G   F
Carolina, Caroline
C         G   F
Carolina, Caroline
C         G   F
Carolina, Caroline
C         G   F
Carolina, Caroline
Composição de Foo Fighters
Colaboración y revision:
918 reproducciones
    • ½ Tono
    • A
    • Bb
    • B
    • C
    • Db
    • D
    • Eb
    • E
    • F
    • F#
    • G
    • Ab
  • Adicionar à lista

    0 comentarios

    Ver todos os comentários
    00:00 / 00:00
    outros vídeos desta música
    repetir qualidade Automático
    Outros vídeos desta música
    00:00 / 00:00
    Automático
    OK