Cifra Club

Alforria

Forfun

Tablatura: Principal (guitarra)
Já pensou em usar uma coleção de roupas do Cifra Club? Responda as perguntas abaixo e nos ajude nessa missão! →
tono: G
Intro: 2x
E|----------------------------------------------------------|
B|----------------------------------------------------------|
G|-----789--54540-----789-----------------------------------|
D|--2--789--54540--2--789-----------------------------------|
A|--2--567--32320--2--567-3-2---0---------------------------|
E|----------------------------3-----------------------------|

E|----------------------------------------------------------|
B|----------------------------------------------------------|
G|-----789--54540-----789-----------------------------------|
D|--2--789--54540--2--789-567-789---------------------------|
A|--2--567--32320--2--567-567-789---------------------------|
E|------------------------345-567---------------------------|

        Em C (2x)
E|------------------------------------------------7---------|
B|--8-7--------7--8p7------8-7----------10------------------|
G|------7---9-----------9--------7---9-----------9----------|
D|--------9--------------------------9----------------------|
A|----------------------------------------------------------|
E|----------------------------------------------------------|

E|------------------------------------------------7---------|
B|--8-7--------7--8p7------8-7----------10------------------|
G|------7---9-----------9--------7---9----------------------|
D|--------9--------------------------9----------------------|
A|----------------------------------------------------------|
E|----------------------------------------------------------|

      Em             C
Adestrado, incondicionado
         G                    D
O potencial racional foi sabotado
Am                     B
Um rebanho cego segue sem pensar
      Em            C
Entretido, lobotomizado
            G                  D
A televisão toma todo seu tempo vago
Am                      B
Atado, enclausurado no mesmo lugar

(E5 D5 E5)
Eles impõem uma verdade absoluta
E se você refuta, a resposta vem com força bruta
Um plano muito bem arquitetado
Relação estreita de empreiteiras e estado
Verás que um filho teu não é uma puta
E a sua conduta não coloca os seus valores em disputa
Verás que o teu povo não é bobo
Em pele de cordeiro se esconde o velho lobo

  (Em C) (2x)
E|------------------------------------------------7---------|
B|--8-7--------7--8p7------8-7----------10------------------|
G|------7---9-----------9--------7---9-----------9----------|
D|--------9--------------------------9----------------------|
A|----------------------------------------------------------|
E|----------------------------------------------------------|

E|------------------------------------------------7---------|
B|--8-7--------7--8p7------8-7----------10------------------|
G|------7---9-----------9--------7---9----------------------|
D|--------9--------------------------9----------------------|
A|----------------------------------------------------------|
E|----------------------------------------------------------|

      Em               C
Adestrado, semi escravizado
                  G                    D
É senzala em movimento ou um ônibus lotado
Am                         B
Miséria oferecida a preço popular
          Em             C
E sua falacia é patrocinada
            G                     D
A democracia de fato foi sequestrada
Am                      B
Quem bancou a festa vai querer dançar

(E5 D5 E5)
Eles impõem uma verdade absoluta
E se você refuta a resposta vem com força bruta
Um plano muito bem arquitetado
Só mais um orçamento superfaturado
Eles te ensinam a sorrir resignado, subordinado
Sustentando o antigo patriarcado
Agindo por trás dos bastidores
De dentro dos engenhos ressurgem os senhores

(Em C) 20x
(Em)
Composição de Danilo Cutrim / Nicolas Christ / Rodrigo Costa / Vitor Isensee
Colaboración y revision:
  • Alexandre Sedlacek
  • Renan Fernandes
  • Rafael Leão
37 reproducciones
    • ½ Tono
    • A
    • Bb
    • B
    • C
    • Db
    • D
    • Eb
    • E
    • F
    • F#
    • G
    • Ab
  • Adicionar à lista

    0 comentarios

    Ver todos os comentários

    ¿Conseguiste tocar?

    4 Tocaram 0 Ainda não

    Grave um vídeo tocando Alforria e nos envie!

    00:00 / 00:00
    outros vídeos desta música
    repetir qualidade Automático
    Outros vídeos desta música
    00:00 / 00:00
    Automático
    OK