Cifra Club

All the small things (cover do Blink 182)

Forfun

Tablatura: Principal (guitarra)
tono: C
e|---------------------------------------------------------------------------------|2
B|-----------------------------6-6-6-6-6-6-6-6--4-4-4-4-4-4-4-4--------------------|v
G|------------5-5-5-5-5-5-5-5--5-5-5-5-5-5-5-5--3-3-3-3-3-3-3-3--------------------|e
D|--5-3-------5-5-5-5-5-5-5-5--3-3-3-3-3-3-3-3--1-1-1-1-1-1-1-1---x-x-x-x-x-3-3-3-3|z
A|--5-3-------3-3-3-3-3-3-3-3-------------------------------------x-x-x-x-x-3-3-3-3|e
E|--3-1-----------------------------------------------------------x-x-x-x-x-1-1-1-1|s

C         G           F
 All the , small things
      G               C
 True care, truth brings
       G           F
 I'll take, one lift
      G             C
 Your ride, best trip
     G       F
 Always, I know
         G           C
 You'll be at my show
      G         F         G      C
 Watching, waiting, commiserating
                                                                C
Say it ain't so, I will not go, turn the lights off, carry me home

Na, na na, na na, na
            G
na, na na, na na  
             F             C
na, na na, na na, na na, na 2X 

e|------------------------------------------------------------------|2
B|--------------------6-6-6-6-5-5-5-5-------------------------------|v
G|-5-5-5-5-5-5-5-5----x-x-x-x-x-x-x-x---7-7-7-7-7-7-7-7-------------|e
D|-5-5-5-5-5-5-5-5----3-3-3-3-2-2-2-2---7-7-7-7-7-7-7-7----3-3-3-3--|z
A|-3-3-3-3-3-3-3-3----------------------5-5-5-5-5-5-5-5----3-3-3-3--|e
E|---------------------------------------------------------1-1-1-1--|s

C        G          F
 Late night, come home
          G        C
 Work sucks, I know
               G            F        G                        C
 She left me roses by the stairs, surprises let me know she cares
                                                                 C
 Say it ain't so, I will not go, turn the lights off, carry me home

Na, na na, na na, na
            G
na, na na, na na  
             F             C
na, na na, na na, na na, na 2X

(C F G 4X)
ESTE SOLO É TOCADO JUNTO COM PALM MUTING 
e|------------------------------------------------------------------|
B|------------------------------------------------------------------|
G|--5---5---5---5---4---4---7---7---5---5---5---5---4---4---7---7---|
D|----5---5---5---5---5---5---5---5---5---5---5---5---5---5---5---5-|
A|------------------------------------------------------------------|
E|------------------------------------------------------------------|

C                             G                    F            C 
Say it ain't so, I will not go, turn the lights off, carry me home
                                       G                      F
Keep your head still, I'll be your thrill, the night go on, my 
              C
little windmill

C                            G                    F              C
Say it ain't so, I will not go, turn the lights off, carry me home
                                       G                 F 
Keep your head still, I'll be your thrill, the night go on, the night
                        C
go on, my little windmill
104 reproducciones
    • ½ Tono
    • A
    • Bb
    • B
    • C
    • Db
    • D
    • Eb
    • E
    • F
    • F#
    • G
    • Ab
  • Adicionar à lista

    0 comentarios

    Ver todos os comentários

    ¿Conseguiste tocar?

    3 Tocaram 0 Ainda não

    Grave um vídeo tocando All the small things (cover do Blink 182) e nos envie!

    00:00 / 00:00
    outros vídeos desta música
    repetir qualidade Automático
    Outros vídeos desta música
    00:00 / 00:00
    Automático
    OK