Cifra Club

Cigarras

Forfun

Tablatura: Principal (guitarra)
tono: D
(solo 1)
E|----------------------------------------------------------------------------------|
B|---------------------------------------------5-5--3--5/3--------------------------|
G|---4-4-4-5/7-5-4--0--2---------4-4-4-5/7-5----------------4/5--4------------------|
D|------------------------3--0------------------------------------------------------|
A|----------------------------------------------------------------------------------|
E|----------------------------------------------------------------------------------|

G              F
Eu vejo, e eu não estou só
G           F
Enxergo, contemplo
G            F
Almejo, e eu não estou só
G              F
Eu corro, e eu não estou só
G             F
Respiro, e eu não estou só
G          F
Eu canto e danço
G             F
A certeza que desata o nó
G                 F
Sentindo que e eu não estou só

(refrão)
G
As cigarras cantam por viver
F
Celebrando a luz do entardecer
G        F
Quanto Amor!
G
A batida forte de um tambor
F
O universo tudo numa flor
G        F
Quanto Amor!

G              F
Eu penso, e eu não estou só
G          F
Reflito e calo
G            F
Sorrio, e eu não estou só
G             F
Eu choro, e eu não estou só

G            F
Viajo, e eu não estou só
G         F
Eu erro e aprendo
G                F
A água, o fogo, e ar e o pó
G              F
Sou tudo, logo não estou só

(refrão)
G
As cigarras cantam por viver
F
Celebrando a luz do entardecer
G        F
Quanto Amor!

G
A batida forte de um tambor
F
O universo tudo numa flor
G        F
Quanto Amor!

G                          F                       G           F
Nem dinheiro nem prazeres vão trazer o que você está procurando
G                          F                       G           F
Nem dinheiro nem prazeres vão trazer o que você está procurando

(refrão)
G
As cigarras cantam por viver
F
Celebrando a luz do entardecer
G        F
Quanto Amor!
G
A batida forte de um tambor
F
O universo tudo numa flor
G        F
Quanto Amor!

(solo final)

E|--15-15-15-15-12---12-------------------------------------------------------------------------
B|-----------------15--15-12-15-12---------------------------------------------------------15---
G|--------------------------------12-14b-14-14------12-14b----12------------------12-14/16---14-
D|---------------------------------------------12-14--------14--14----------12-14---------------
A|--------------------------------------------------------------------12-14---------------------
E|----------------------------------------------------------------------------------------------

E|------------------------------------0h3p0--3/5-0----------------------------------------------
B|-15-----16b---15--------------------------3------3h5p0------0h3p0--5-3------------------------
G|---16-14----14---16-16b-------------------------------------------4----4--2p4p0---------------
D|----------------------------------------------------------------------------------------------
A|----------------------------------------------------------------------------------------------
E|----------------------------------------------------------------------------------------------

E|----9/10-10-10-10-7-10-12-10-7-10-7-5------------------------------------------12h14p12h14-15-15
B|--------------------------------------------------------------------12h15p12h15---------------
G|----------------------------------------------------------------12h14--------------------------
D|---------------------------------------------------------12h14--------------------------------
A|----------------------------------------------------12h14-------------------------------------
E|-----------------------------------------------12h15------------------------------------------
Composição de Danilo , Rodrigo , Vitor e Nicolas
Colaboración y revision:
  • Allan Souza
  • beatriz mello
  • Pedro Redó
189 reproducciones
    • ½ Tono
    • A
    • Bb
    • B
    • C
    • Db
    • D
    • Eb
    • E
    • F
    • F#
    • G
    • Ab
  • Adicionar à lista

    0 comentarios

    Ver todos os comentários

    ¿Conseguiste tocar?

    9 Tocaram 0 Ainda não

    Grave um vídeo tocando Cigarras e nos envie!

    00:00 / 00:00
    outros vídeos desta música
    repetir qualidade Automático
    Outros vídeos desta música
    00:00 / 00:00
    Automático
    OK