Cifra Club

Como Eu Quero

Forfun

Tablatura: Principal (guitarra)
Já pensou em usar uma coleção de roupas do Cifra Club? Responda as perguntas abaixo e nos ajude nessa missão! →
tono: C
B |------------------------------------------------------------------------------------------------------|
G |------------------------------------------------------------------------------------------------------|
D |-------------5--3-3--2-------------------------2-------------------------3-2-2------------------------|
A |-----3-----------------------5-----3-5-3-5-------------5----3------------------------5--3------3--5--3|
E |------------------------------------------------------------------------------------------------------|

B |---------------------------|
G |---------------------------|
D |--------------2--3--2------|
A |------------------------5--|
E |---------------------------|

        (C,G,Am,F)
diz pra ficar muda faz cara de misterio tira essa bermuda q eu quero voce serio
tramas do sucesso mundo particular solos de guitarra nao vao te conquistar
uh eu quero voce como eu quero uh eu quero voce como eu quero
o que voce precisa é de um retoque total vou transformar seu rascunho em arte final
agora nao tem jeito ce ta numa cilada cada um por si voce por min e mais nada
uh eu quero voce como eu quero uh eu quero voce como eu quero
Dm              F                  C                       G
      longe do meu dominio ce vai d mal a pior
Dm                          F       C
    vem que eu te ensino como ser bem melhor
Dm              F                   C                       G
    longe do meu dominio ce vai de mal a pior

Dm                           F      C
     vem que eu te ensino como ser bem melhor

E |-------------------------------------------------------------------------------------------------|
B |---8--6-6-5-5----------------------5------------6--5-5-------------------------------------------|
G |-------------------7--5--7-7--5---------7--------------------7-7--5----2-5---5-5--2--7--5--------|
D |-------------------------------------------------------------------------------------------------|
A |-------------------------------------------------------------------------------------------------|
E |-------------------------------------------------------------------------------------------------|

E |-------------------------------------------------------------------------------------------------|
B |-----8--6-6-5-5--------------------------5-------------6--5-5------------------------------------|
G |------------------------7-7----5-7-7------------7-------------------7-7--5----2-5---5-5--2--7-5--|
D |-------------------------------------------------------------------------------------------------|
A |-------------------------------------------------------------------------------------------------|
E |-------------------------------------------------------------------------------------------------|

(C,G,Am,F)
uh eu quero voce como eu quero uh eu quero voce como eu quero.
Composição de Leoni / Paula Toller
Colaboración y revision:
  • Dustin .
  • Rodrigo Joia
  • eduardo viana
46 reproducciones
    • ½ Tono
    • A
    • Bb
    • B
    • C
    • Db
    • D
    • Eb
    • E
    • F
    • F#
    • G
    • Ab
  • Adicionar à lista

    0 comentarios

    Ver todos os comentários

    ¿Conseguiste tocar?

    0 Tocaram 0 Ainda não

    Grave um vídeo tocando Como Eu Quero e nos envie!

    00:00 / 00:00
    outros vídeos desta música
    repetir qualidade Automático
    Outros vídeos desta música
    00:00 / 00:00
    Automático
    OK