Cifra Club

Constelação Karina

Forfun

Tablatura: Principal (guitarra)
tono: B
(riff 1)
E|-----------------------
B|-----------------------
G|--11-11-9-9-8-9-8-9-8--     toca ate o terceiro verso da musica
D|----9----9---9-9-9-9---
A|-----------------------
E|-----------------------

(riff 2) (tocado no refrão)
E|----------------------------------------------------------
B|----------------------------------------------------------
G|--11-11-11-9-9-9-8-8-8-9-8---11-11-11-9-9-9-8-8-8-98------
D|---------------------------------------------------11-9---
A|----------------------------------------------------------
E|----------------------------------------------------------

(riff 3) (tocado no verso que antecedo ao refrão)
E|---------------------------------------
B|---------------------------------------
G|--8-9-8-11-9-8-9---8-9-8-11-8-9-8------
D|---------------------------------11-9--
A|---------------------------------------
E|---------------------------------------

(riff 4)
(na parte que começa: "todos os amigos, ngm foi em bora.." )
E|----------------------------------------------------
B|----------------------------------------------------
G|----------------------------------------------------
D|----------------------------------------------------
A|--9h22222h4444h6666h22222h4444h6666h22222h444h666---
E|----------------------------------------------------

(até - "brilhaaaaaaaaaar" E5 depois F#5 vai para refrão)

   B             E
  É tão fácil não lembrar
        G#m                      F#
  que a vida logo passa e ninguém vai te esperar

(abafado)
     B5              E
  longe de casa, perto do mar
     G#5                     F#5
  o vento no seu rosto, histórias pra contar
   G#5         F#5             E           F#5
  muito forte, lá no alto, sempre vão brilhar

(aefrão)
     B5          F#5
  milhões de estrelas coloridas
   G#5                E
  rumo ao infinito, tudo faz sentido
  B5        F#     G#5  E  ( B  F#  E )
  vai ser bem melhor

( B5  C#5  D#5  C#5  B5 )

     B5            F#5
  o que te faz chorar
      G#5             E
  amanhã já te faz rir
       G#5           F#             G#5              F#
  meu coração bate ao contrário, pronto pra explodir

E|------------------
B|------------------
G|------------------
D|--44--6--4--6-3-4-    (4x)
A|--22--4--2--4-1-2-
E|------------------

E|-----------------------------------------------------------------
B|-----------------------------------------------------------------
G|--44-6--4--6-44--44--6--4--6--4-6-88-9-8-9-8-6-44-6-4------------
D|-----------------------------------------------------------------
A|--22-4--2--4-22--22--4--2--4--2-4-66-7-6-7-6-4-22-2-2------------
E|-----------------------------------------------------------------

 B5               F#5
  um abraço forte, bem melhor agora
   G#5                    E
  um giro e tudo muda de lugar
   B5              F#5
  todos os amigos ninguém foi embora
   G#5                            E           F#5
  apaga a luz, lá fora sempre é hora de brilhar

(refrão)
     B5         F#5
  milhões de estrelas coloridas
   G#5               E
  rumo ao infinito, tudo faz sentido
  B       F#5    E
  vai ser bem melhor     (nessa parte ja faz a ponte aqui em baixo junto)

B5               F#5
  eu gritei, ninguém me ouviu
G#5             Em
  tentei fugir, ninguém me viu
      B5        F#5
  correndo pro céu,
        G#5
  quem vai se importar?
B5               F#5
  me dá a mão e vem comigo
G#5
  apaga a luz e vem comigo
     B5         F#5
  correr pelo céu
         G#5
  nas estrelas tocar
   B5       F#5     E
  vai ser bem melhor...
429 reproducciones
    • ½ Tono
    • A
    • Bb
    • B
    • C
    • Db
    • D
    • Eb
    • E
    • F
    • F#
    • G
    • Ab
  • Adicionar à lista

    0 comentarios

    Ver todos os comentários

    ¿Conseguiste tocar?

    6 Tocaram 1 Ainda não

    Grave um vídeo tocando Constelação Karina e nos envie!

    00:00 / 00:00
    outros vídeos desta música
    repetir qualidade Automático
    Outros vídeos desta música
    00:00 / 00:00
    Automático
    OK