Cifra Club

Cosmic Jesus

Forfun

Tablatura: Principal (guitarra)
tono: G
Intro 2x:
E|-----------------------------------------------------------------------
B|-----------------------------------------------------------------------
G|-----------------------------------------------------------------------
D|-----------------------------------------------------------------------
A|--7--5--7-------------2--3--5---7--5--7-----------------2~-3--5--------
E|------------0--3--0--------------------------0--0--3--0----------------

E|-----------------------------------------------------------------------
B|-----------------------------------------------------------------------
G|-----------------------------------------------------------------------
D|-----------------------------------------------------------------------
A|--7--5--7-------------2--3--5--7--5--7--------4--5--7--9---------------
E|-------------0--3--0-------------------------0---2--3--5--7------------

( G5  F#5 )

Riff 2: Bm)

E|-----------------------------------------------------------------------
B|-----------------------------------------------------------------------
G|-----------------------------------------------------------------------
D|--9--7--9--------------------9--7--9-------------4---------------------
A|----------------9--9--7--9-----------------7--7-----7--5---------------
E|------------7----------------------------7--------------------7///-----

        Bm
Nos olhos da ciência que desvenda a alegoria
Soam os tambores em anúncio à boa nova
Impávido diante do que não se conhecia
Avança no sendeiro o homem forte a cada prova
E quando sofre a alma nessa casa de argila
Há num mergulho de olho aberto a mão amiga que conduz

             Em
De um cosmonauta que avisou:
           Bm
Cada um carrega a sua cruz
Bm                   Em     Bm  Em
Ah! Que maravilha ver
Bm                Em  Bm  Em
Eu e minha tribo
        Bm             Em   Bm  Em
Tranqüilidade, só lazer
Bm             Em  Bm  Em
Prevalece o Amor
Composição de Danilo Cutrim / Gustavo Black Alien / Nicolas Fassano / Rodrigo Costa / Vitor Isensee
Colaboración y revision:
  • Amário Fernandes
  • Dudu Rocha
151 reproducciones
    • ½ Tono
    • A
    • Bb
    • B
    • C
    • Db
    • D
    • Eb
    • E
    • F
    • F#
    • G
    • Ab
  • Adicionar à lista

    0 comentarios

    Ver todos os comentários

    ¿Conseguiste tocar?

    6 Tocaram 0 Ainda não

    Grave um vídeo tocando Cosmic Jesus e nos envie!

    00:00 / 00:00
    outros vídeos desta música
    repetir qualidade Automático
    Outros vídeos desta música
    00:00 / 00:00
    Automático
    OK