Cifra Club

Eremita Moderno

Forfun

Tablatura: Principal (guitarra)
Já pensou em usar uma coleção de roupas do Cifra Club? Responda as perguntas abaixo e nos ajude nessa missão! →
tono: F#m
E|--------------------------------------------------------------------|
B|--------------------------------------------------------------------|
G|---------------7-7--------------------------------------------------|
D|--7h9-9--9-7h9--------7h9-9-9-7h9-----------------------------------|
A|----------------------------------7-5~------------------------------|
E|--------------------------------------------------------------------|

E|--------------------------------------------------------------------|
B|--------------------------------------------------------------------|
G|--------------7-7-----------9h10-x-7--------------------------------|
D|--7h9-9-9-7h9-------7h9-9-9----------9-7h9--------------------------|
A|--------------------------------------------------------------------|
E|--------------------------------------------------------------------|

Pré-Refrão

E|-x-x-7-x-x-7-x-x-7-x-x-9-9-9----------------------------------------|
B|-x-x-7-x-x-7-x-x-7-x-x-9-9-9----------------------------------------|
G|-x-x-7-x-x-7-x-x-7-x-x-9-9-9----------------------------------------|
D|-x-x-7-x-x-7-x-x-7-x-x-9-9-9----------------------------------------|
A|--------------------------------------------------------------------|
E|--------------------------------------------------------------------|

E|-x-x-7-x-x-7-x-x-7-x-x-7-10-10-10-----------------------------------|
B|-x-x-7-x-x-7-x-x-7-x-x-7-10-10-10-----------------------------------|
G|-x-x-7-x-x-7-x-x-7-x-x-7-10-10-10-----------------------------------|
D|-x-x-7-x-x-7-x-x-7-x-x-7-10-10-10-----------------------------------|
A|--------------------------------------------------------------------|
E|--------------------------------------------------------------------|

E|-x-x-7-x-x-7-x-x-7-x-x-9-9-9----------------------------------------|
B|-x-x-7-x-x-7-x-x-7-x-x-9-9-9----------------------------------------|
G|-x-x-7-x-x-7-x-x-7-x-x-9-9-9----------------------------------------|
D|-x-x-7-x-x-7-x-x-7-x-x-9-9-9----------------------------------------|
A|--------------------------------------------------------------------|
E|--------------------------------------------------------------------|

E|-x-x-7-x-x-7-x-x-7--------------------------------------------------|
B|-x-x-7-x-x-7-x-x-7--------------------------------------------------|
G|-x-x-7-x-x-7-x-x-7--------------------------------------------------|
D|-x-x-7-x-x-7-x-x-7--------------------------------------------------|
A|--------------------------------------------------------------------|
E|--------------------------------------------------------------------|

E|----------------------------------------------------------------------|
B|----------------------------------------------------------------------|
G|----------------------------------------------------------------------|
D|-7-9-x-7-9-x-7---7---7-7-9-x-7-9-x-7---7---7-7-9-x-7-9-x-7---7---7-7-9|
A|-7-9-x-7-9-x-7---7---7-7-9-x-7-9-x-7---7---7-7-9-x-7-9-x-7---7---7-7-9|
E|-7-9-x-7-9-x-7---7---7-7-9-x-7-9-x-7---7---7-7-9-x-7-9-x-7---7---7-7-9|

E|--------------------------------------------------------------------|
B|--------------------------------------------------------------------|
G|--------------------------------------------------------------------|
D|-7---9-9-9-9-9------------------------------------------------------|
A|-7---9-9-9-9-9------------------------------------------------------|
E|-7---9-9-9-9-9------------------------------------------------------|








Refrão (Overdrive)

Trajava sunga...

E|----------------------------------------------------------------------|
B|----------------------------------------------------------------------|
G|-4-x-4-4-x----------4-x-4-4-x-----------------------------------------|
D|-4-x-4-4-x-2-x-2-2--4-x-4-4-x-2-2-2-2-2-2-----------------------------|
A|-2-x-2-2-x-2-x-2-2--2-x-2-2-x-2-2-2-2-2-2-----------------------------|
E|-----------2-x-2-2------------2-2-2-2-2-2-----------------------------|
   ↑   ↑ ↑   ↑   ↑ ↑  ↑   ↑ ↑   ↑ ↓ ↑ ↓ ↑ ↓

E|----------------------------------------------------------------------|
B|----------------------------------------------------------------------|
G|-4-x-4-4-x----------4-x-4-4-x-----------------------------------------|
D|-4-x-4-4-x-2-x-2-2--4-x-4-4-x--14h16-12-9-----------------------------|
A|-2-x-2-2-x-2-x-2-2--2-x-2-2-x--14h16-12-9-----------------------------|
E|-----------2-x-2-2-------------14h16-12-9-----------------------------|

Dizia ao reino...

E|----------------------------------------------------------------------|
B|----------------------------------------------------------------------|
G|-4-x-4-4-x----------4-x-4-4-x-----------------------------------------|
D|-4-x-4-4-x-2-x-2-2--4-x-4-4-x-2-2-2-2-2-2-----------------------------|
A|-2-x-2-2-x-2-x-2-2--2-x-2-2-x-2-2-2-2-2-2-----------------------------|
E|-----------2-x-2-2------------2-2-2-2-2-2-----------------------------|
   ↑   ↑ ↑   ↑   ↑ ↑  ↑   ↑ ↑   ↑ ↓ ↑ ↓ ↑ ↓

E|----------------------------------------------------------------------|
B|----------------------------------------------------------------------|
G|-4-x-4-4-x----------4-x-4-4-x-----------------------------------------|
D|-4-x-4-4-x-2-x-2-2--4-x-4-4-x--14h16-12-9-----------------------------|
A|-2-x-2-2-x-2-x-2-2--2-x-2-2-x--14h16-12-9-----------------------------|
E|-----------2-x-2-2-------------14h16-12-9-----------------------------|


Final (Use: wah wah, delay e compressor também).

E|-x-x-7-x-x-7-x-x-7-x-x-7-x-x-7-x-x-7-x-x-7-x-x-7-9~-----------------|
B|-x-x-7-x-x-7-x-x-7-x-x-7-x-x-7-x-x-7-x-x-7-x-x-7-9~-----------------|
G|-x-x-7-x-x-7-x-x-7-x-x-7-x-x-7-x-x-7-x-x-7-x-x-7-9~-----------------|
D|-x-x-7-x-x-7-x-x-7-x-x-7-x-x-7-x-x-7-x-x-7-x-x-7-9~-----------------|
A|--------------------------------------------------------------------|
E|--------------------------------------------------------------------|

E|-x-x-7-x-x-7-x-x-7-x-x-7-x-x-7-x-x-7-x-x-7-x-x-7-9~-----------------|
B|-x-x-7-x-x-7-x-x-7-x-x-7-x-x-7-x-x-7-x-x-7-x-x-7-9~-----------------|
G|-x-x-7-x-x-7-x-x-7-x-x-7-x-x-7-x-x-7-x-x-7-x-x-7-9~-----------------|
D|-x-x-7-x-x-7-x-x-7-x-x-7-x-x-7-x-x-7-x-x-7-x-x-7-9~-----------------|
A|--------------------------------------------------------------------|
E|--------------------------------------------------------------------|

Entra baixo junto

E|-x-x-7-x-x-7-x-x-7-x-x-7-x-x-7-x-x-7-x-x-7-x-7-x-10-10-10-10~-------|
B|-x-x-7-x-x-7-x-x-7-x-x-7-x-x-7-x-x-7-x-x-7-x-7-x-10-10-10-10~-------|
G|-x-x-7-x-x-7-x-x-7-x-x-7-x-x-7-x-x-7-x-x-7-x-7-x-10-10-10-10~-------|
D|-x-x-7-x-x-7-x-x-7-x-x-7-x-x-7-x-x-7-x-x-7-x-7-x-10-10-10-10~-------|
A|--------------------------------------------------------------------|
E|--------------------------------------------------------------------|

E|-x-x-7-x-x-7-x-x-7-x-x-7-x-x-7-x-x-7-x-x-7-x-x-7-9~-----------------|
B|-x-x-7-x-x-7-x-x-7-x-x-7-x-x-7-x-x-7-x-x-7-x-x-7-9~-----------------|
G|-x-x-7-x-x-7-x-x-7-x-x-7-x-x-7-x-x-7-x-x-7-x-x-7-9~-----------------|
D|-x-x-7-x-x-7-x-x-7-x-x-7-x-x-7-x-x-7-x-x-7-x-x-7-9~-----------------|
A|--------------------------------------------------------------------|
E|--------------------------------------------------------------------|

E|-x-x-7-x-x-7-x-x-7-x-x-7-x-x-7-x-x-7-x-x-7-x-x-7-9~-----------------|
B|-x-x-7-x-x-7-x-x-7-x-x-7-x-x-7-x-x-7-x-x-7-x-x-7-9~-----------------|
G|-x-x-7-x-x-7-x-x-7-x-x-7-x-x-7-x-x-7-x-x-7-x-x-7-9~-----------------|
D|-x-x-7-x-x-7-x-x-7-x-x-7-x-x-7-x-x-7-x-x-7-x-x-7-9~-----------------|
A|--------------------------------------------------------------------|
E|--------------------------------------------------------------------|

E|-x-x-7-x-x-7-x-x-7-x-x-7-x-x-7-x-x-7-x-x-7-x-x-7-9~-----------------|
B|-x-x-7-x-x-7-x-x-7-x-x-7-x-x-7-x-x-7-x-x-7-x-x-7-9~-----------------|
G|-x-x-7-x-x-7-x-x-7-x-x-7-x-x-7-x-x-7-x-x-7-x-x-7-9~-----------------|
D|-x-x-7-x-x-7-x-x-7-x-x-7-x-x-7-x-x-7-x-x-7-x-x-7-9~-----------------|
A|--------------------------------------------------------------------|
E|--------------------------------------------------------------------|

E|-x-x-7-x-x-7-x-x-7-x-x-7-x-x-7-x-x-7-x-x-7-x-7-x-10~----------------|
B|-x-x-7-x-x-7-x-x-7-x-x-7-x-x-7-x-x-7-x-x-7-x-7-x-10~----------------|
G|-x-x-7-x-x-7-x-x-7-x-x-7-x-x-7-x-x-7-x-x-7-x-7-x-10~----------------|
D|-x-x-7-x-x-7-x-x-7-x-x-7-x-x-7-x-x-7-x-x-7-x-7-x-10~----------------|
A|--------------------------------------------------------------------|
E|--------------------------------------------------------------------|


Refrão (Overdrive)

Trajava sunga...

E|----------------------------------------------------------------------|
B|----------------------------------------------------------------------|
G|-4-x-4-4-x----------4-x-4-4-x-----------------------------------------|
D|-4-x-4-4-x-2-x-2-2--4-x-4-4-x-2-2-2-2-2-2-----------------------------|
A|-2-x-2-2-x-2-x-2-2--2-x-2-2-x-2-2-2-2-2-2-----------------------------|
E|-----------2-x-2-2------------2-2-2-2-2-2-----------------------------|
   ↑   ↑ ↑   ↑   ↑ ↑  ↑   ↑ ↑   ↑ ↓ ↑ ↓ ↑ ↓

E|----------------------------------------------------------------------|
B|----------------------------------------------------------------------|
G|-4-x-4-4-x----------4-x-4-4-x-----------------------------------------|
D|-4-x-4-4-x-2-x-2-2--4-x-4-4-x--14h16-12-9-----------------------------|
A|-2-x-2-2-x-2-x-2-2--2-x-2-2-x--14h16-12-9-----------------------------|
E|-----------2-x-2-2-------------14h16-12-9-----------------------------|

Dizia ao reino...

E|----------------------------------------------------------------------|
B|----------------------------------------------------------------------|
G|-4-x-4-4-x----------4-x-4-4-x-----------------------------------------|
D|-4-x-4-4-x-2-x-2-2--4-x-4-4-x-2-2-2-2-2-2-----------------------------|
A|-2-x-2-2-x-2-x-2-2--2-x-2-2-x-2-2-2-2-2-2-----------------------------|
E|-----------2-x-2-2------------2-2-2-2-2-2-----------------------------|
   ↑   ↑ ↑   ↑   ↑ ↑  ↑   ↑ ↑   ↑ ↓ ↑ ↓ ↑ ↓

E|----------------------------------------------------------------------|
B|----------------------------------------------------------------------|
G|-4-x-4-4-x----------4-x-4-4-x-----------------------------------------|
D|-4-x-4-4-x-2-x-2-2--4-x-4-4-x--14h16-12-9-----------------------------|
A|-2-x-2-2-x-2-x-2-2--2-x-2-2-x--14h16-12-9-----------------------------|
E|-----------2-x-2-2-------------14h16-12-9-----------------------------|

E|--------------------------------------------------------------------|
B|--------------------------------------------------------------------|
G|---9h10-x-7---------------------------------------------------------|
D|------------9-7h9-9-------------------------------------------------|
A|--------------------------------------------------------------------|
E|--------------------------------------------------------------------|

Composição de Danilo Cutrim / Nicolas Christ / Rodrigo Costa / Vitor Isensee
Colaboración y revision:
  • Paulo Carvalho
73 reproducciones
    • ½ Tono
    • Am
    • Bbm
    • Bm
    • Cm
    • C#m
    • Dm
    • Ebm
    • Em
    • Fm
    • F#m
    • Gm
    • G#m
  • Adicionar à lista

    0 comentarios

    Ver todos os comentários

    ¿Conseguiste tocar?

    0 Tocaram 0 Ainda não

    Grave um vídeo tocando Eremita Moderno e nos envie!

    00:00 / 00:00
    outros vídeos desta música
    repetir qualidade Automático
    Outros vídeos desta música
    00:00 / 00:00
    Automático
    OK