Cifra Club

Falar de Mim

Forfun

Tablatura: Principal (guitarra)
tono: A
Intro:
E|---------------------------|---------------------------|
B|---------------------------|---------------------------|
G|-----6-----7h6-------6-----|-----6-----7h6-------6-----|
D|---------------------------|---------------------------|
A|--0-----0---------0-----0--|---------------------------|
E|---------------------------|--0-----0---------0-----0--|

E|---------------------------|-------------------||
B|---------------------------|--9----------------||
G|-----6-----7h6-------6-----|--9----------------||
D|--0-----0---------0-----0--|--9----------------||
A|---------------------------|--7----------------||
E|---------------------------|-------------------||

A                E
Eu, já cansei de ser
              F#m
Pisado por você
              D                        A
Sempre me ignorando e me passando para trás
           E
E cada vez mais
              F#m
Não quero nem saber
                    D                       F#m D
E quando eu te encontrar eu so preciso te dizer
       A
Então, foda-se
                  E
Depois não vem me procurar
                  F#m                D
Pois eu já cansei de chorar tanto assim por você
         A                         E
Mas tem coisas q acontecem para a gente rir
           F#m                D
Mas você ainda vai ouvir falar de mim
Solo:
      A               E            F#m      D
E|-------------------------------------------------------
B|--2-3-2-2--5-3-2-----2-3---5-3-2-----2-3-----2-0-------
G|-2---------------4-2-----4-------4-2----2--2-----2-1-1-
D|-------------------------------------------------------
A|-------------------------------------------------------
E|-------------------------------------------------------
       A            B         F#m    D
E|-------------------------------------------------------
B|---2-3-2-2--5-3-2--------------------------------------
G|-2----------------4------------------------------------
D|-------------------------------------------------------
A|-------------------------------------------------------
E|-------------------------------------------------------

A                   E
Mas o tempo me ensinou
              F#m
Vc não deu valor
                 D                           A
Sempre me disse q eu não era o bom bastante pra você
            E
E pode ate ser
                  F#m
Mas eu não vou mudar
                       D
Mas quando eu te encontrar você vai rir e eu vou
    F#m  D
gritar
       A
Então, foda-se
                   E
Depois não vem me procurar
                  F#m                D
Pois eu já cansei de chorar tanto assim por você
         A                        E
Mas tem coisas que acontecem pra gente rir
               F#m                D
Mas você ainda vai ouvir falar de mim
Composição de Forfun
Colaboración y revision:
  • Caio Gomes
  • Felipe Isoppo
  • Guilherme Oliveira
67 reproducciones
    • ½ Tono
    • A
    • Bb
    • B
    • C
    • Db
    • D
    • Eb
    • E
    • F
    • F#
    • G
    • Ab
  • Adicionar à lista

    0 comentarios

    Ver todos os comentários

    ¿Conseguiste tocar?

    3 Tocaram 0 Ainda não

    Grave um vídeo tocando Falar de Mim e nos envie!

    00:00 / 00:00
    outros vídeos desta música
    repetir qualidade Automático
    Outros vídeos desta música
    00:00 / 00:00
    Automático
    OK