Cifra Club

Gruvi Quântico

Forfun

Tablatura: Principal (guitarra)
Já pensou em usar uma coleção de roupas do Cifra Club? Responda as perguntas abaixo e nos ajude nessa missão! →
tono: A
Intro :
e||---------------------------------------------------------------------------------------------||
B||---------------------------------------------------------------------------------------------||
G||---------------------------------------------------------------------------------------------||
D||----22----22------22----22------22----22------22---------------------------------------------||
A||3/4-22-44-22--3/4-22-44-22--3/4-22-44-22--3/4-22-44------------------------------------------||
E||1/2-xx-22-xx--1/2-xx-22-xx--1/2-xx-22-xx--1/2-xx-22------------------------------------------||


F#m (na 9ª casa) 

Um mergulho no céu estrelado                
Banho frio mantém relaxado
Olha só o relevo, que montanha linda!
Limonada gelada no almoço
Mil beijos com amor no pescoço
Quando se manifesta a beleza dessa vida


F#5                                 Riff 1
 Embriagada no egoísmo que lhe embaça a visão         (E|--4h5-2/4----) riff 1

F#5                                riff2
A humanidade enxerga a vida como competição          (A|--4h5-2/4----) riff 2

F#5                             Riff1
O concreto toma conta do que era verde

F#5            E5      D#5      D5
Desequilíbrio, miséria, fome e sede

F#5                       riff1
Essa lógica corrói os seres humanos

F#5                          riff 2
Fode o planeta e seus recursos naturais

F#5                            Riff 1
Ignora o fato da existência de outros planos

F#5               E5    D#5   D5
E nos afasta de avanços espirituais

F#5, E5
Luz, preencha todo o meu ser
E mostre o que podemos ver
Além do que é material, se encontra a alegria
Flui, em tudo uma força maior
Que cria e muda pra melhor
Que só quer ver você dançar em sintonia



e||---------------------------------------------------------------------------------------------||
B||---------------------------------------------------------------------------------------------||
G||---------------------------------------------------------------------------------------------||
D||----22----22------22----22------22----22------22---------------------------------------------||
A||3/4-22-44-22--3/4-22-44-22--3/4-22-44-22--3/4-22-44------------------------------------------||
E||1/2-xx-22-xx--1/2-xx-22-xx--1/2-xx-22-xx--1/2-xx-22------------------------------------------||

F#m  (9ª casa)

Criançada na rua brincando
Seu quadril segue um mantra dançando
O barulho da chuva que te lava a alma
Um sorriso, um brinde, um abraço
Gratidão, peito aberto no espaço
Quando a mãe natureza te devolve a calma

F#5                           Riff 1
Neo-liberalismo, monocultura, padronização

F#5                           riff 2 
O aquecimento global já não é ficção

F#5                             Riff 1
Movidos pelo lucro, a vaidade e o poder

F#5             E5  D#5  D5
Homens mortos pelo ego antes de nascer

F#5                       Riff 1
Na nova era chega à terra a nova concepção

F#5                       Riff 2
Respiro fundo, fecho os olhos, de pé permaneço

F#5                            riff 1
Abro ao cosmos as janelas do meu coração

F#5            E5  D#5   D5
Entrego, confio, aceito e agradeço

F#5,E5

Luz, preencha todo o meu ser
E mostre o que podemos ver
Além do que é material, se encontra a alegria
Fé, ô Jah eu vou seguir com Fé!
Fluindo na força maior
Que cria e muda pra melhor
...em sintonia

e||---------------------------------------------------------------------------------------------||
B||---------------------------------------------------------------------------------------------||
G||---------------------------------------------------------------------------------------------||
D||----22----22------22----22------22----22------22---------------------------------------------||
A||3/4-22-44-22--3/4-22-44-22--3/4-22-44-22--3/4-22-44------------------------------------------||
E||1/2-xx-22-xx--1/2-xx-22-xx--1/2-xx-22-xx--1/2-xx-22------------------------------------------||
Composição de Danilo Cutrim / Nicolas Christ / Rodrigo Costa / Vitor Isensee
Colaboración y revision:
  • Ruan Andrade
  • Guilherme rosa
156 reproducciones
    • ½ Tono
    • A
    • Bb
    • B
    • C
    • Db
    • D
    • Eb
    • E
    • F
    • F#
    • G
    • Ab
  • Adicionar à lista

    0 comentarios

    Ver todos os comentários

    ¿Conseguiste tocar?

    1 Tocaram 1 Ainda não

    Grave um vídeo tocando Gruvi Quântico e nos envie!

    00:00 / 00:00
    outros vídeos desta música
    repetir qualidade Automático
    Outros vídeos desta música
    00:00 / 00:00
    Automático
    OK