Cifra Club

Infinitas Possibilidades

Forfun

Cifrado: Principal (guitarra y guitarra eléctrica)
tono: C
e|-------------------------------------------------------
B|-------------------------------------------------------
G|-------------------------------------------------------
D|---------12/--10---9----9/-----10-----------------
A|---------12/--10---9----9/-----10-----------------
D|---------12/--10---9----9/-----10----------------

2ª parte (Plantou uma muda que brotou...)
Obs: a música não é difícil ,mas tem que escutar pra tirer o tempo certo.

e|------------------------------------------------------------------------------------------------
B|------------------------------------------------------------------------------------------------
G|------------------------------------------------------------------------------------------------
D|---3h---5-5-5-5-5-5/-3/5/8--5-5-5-5h-8--3-3-3-3-------10-10-10--------------
A|---3h---5-5-5-5-5-5/-3/5/8--5-5-5-5h-8--3-3-3-3-------10-10-10--------------
D|---3h---5 5-5-5-5-5/-3/5/8--5-5-5-5h-8--3-3-3-3-------10-10-10---------------

Refrão :(infinitas possibilidades...
e|-------------------------------------------------------
B|-------------------------------------------------------
G|-------------------------------------------------------
D|---------12/--10---9----9/-----10-----------------
A|---------12/--10---9----9/-----10-----------------
D|---------12/--10---9----9/-----10----------------

O olho atento vai notar...

e|-----------------------------------------------------------------
B|-----------------------------------------------------------------
G|-----------------------------------------------------------------
D|---5-5-5-5-5-5-5-5/7-7/8--10----------------------------
A|---5-5-5-5-5-5-5-5/7-7/8--10----------------------------
D|---5-5-5-5-5-5-5-5/7-7/8--10----------------------------

Verso 2
Refrão

Solo: 
--------------------------------------------------
--------------------------------------------------
--------------------------------------------------
-12--10-9-10-9--7-9-7--5-7-5-3-5------
----------------------------------55-------------
--------------------------------------------------

Parte 2
-------------------------------------------------------
-------------------------------------------------------
-------------------------------------------------------
-------------------------------------------------------
-------------------------------------------------------
--12-10-9-10-7-9-7--5-7-5-3-5-00---------

Fim !
00:00 / 00:00
Otros videos de esta canción
Repetir
Otros videos de esta canción
Compositor no encontrado.
Colaboración y revisión:
  • Iago Samir
63 vistas
  • Simplificar cifrado
    • ½ Tono
    • A
    • Bb
    • B
    • C
    • Db
    • D
    • Eb
    • E
    • F
    • F#
    • G
    • Ab
  • Agregar a la lista

    0 comentarios

    Ver todos los comentarios

    ¿Lograste tocar?

    0 Tocaron 0 Aún no

    ¡Graba un video tocando Infinitas Possibilidades y envíanoslo!

    00:00 / 00:00
    OK