Cifra Club

Mariá

Forfun

Cifrado: Principal (guitarra y guitarra eléctrica)
tono: C
Intro:

|---------------------7-----------------------------7-10------|
|---7-8-----7-8--7-8----10-7-8-----7-8-----7-8--7-8------7-8--|
|-------7-9----------------------------7-9--------------------|
|-------------------------------------------------------------|
|-------------------------------------------------------------|
|-------------------------------------------------------------|

Verso:

|-------------------------|      |----------------------------|
|------------8-7-8-10-8-7-|      |------------10/12-10-8--7-8-|
|----7-9-9-9--------------| (3X) |----7-9-9-9-----------------| (1X)
|--9----------------------|      |--9-------------------------|
|-------------------------|      |----------------------------|
|-------------------------|      |----------------------------|


(Verso) 
Encarnado em seu corpo
Josualdo Nascimento
É ajudande de pedreiro
E um ser acontecendo
Cresceu solto em Juazeiro
E a dieta sem manteiga
Lhe rendeu força, saúde
E fibras de estátua grega

(Verso)
Filha de pais argentinos
Graduada em cinema
Mariela Sampietro
Pega praia em Ipanema
Toma LSD com suas amigas ricas
Faz Yoga e ouve jazz
Deslumbrada com a vida

 Em
Gente que dorme, que sonha, que mente, que cheira
     Em                 B7
Que sua, que sofre, respira
C7M
Das sete bilhões de pessoas que existem no mundo, 
B7
Quem eu mais quero abraçar

Refrão 2x:
 Em
Mariá, Maria com acento no "A"
C7M     B
Mariá, Mariá

(Verso)
Negro de cabelo branco
Simpatia em pessoa
João Batista Silva Neto
Ganha pouco e ri à toa
Bamba de Padre Miguel
Trompetista da Marinha
É tenente da reserva
E vive por sua família

(Verso)
Mulher de desembargador
Raquel Bragança de Faria
Usa ouro e diamantes
Não falta um dia à academia
Ligada à filantropia
Socialite emergente
No motel com seus amantes
Geme como a Silvia Saint


 Em
Gente que dorme, que sonha, que mente, que cheira
     Em                B7
Que sua, que sofre, respira
C7M
Das sete bilhões de pessoas que existem no mundo, 
B7
Quem eu mais quero abraçar

Refrão 2x:
 Em
Mariá, Maria com acento no "A"
C7M     B
Mariá, Mariá

(Em  C7M  B) 4x

(Refrão 4x)

 Em
Mariá, Maria com acento no "A"
C7M     B
Mariá, Mariá

(Nos últimos dois refrões, entra o riff da introdução)
Composición de Danilo Cutrim / Nicolas Cesar / Rodrigo Costa / Vitor Isensee
Colaboración y revisión:
  • Pedro Almeida
  • Renan Fernandes
32 vistas
    • ½ Tono
    • A
    • Bb
    • B
    • C
    • Db
    • D
    • Eb
    • E
    • F
    • F#
    • G
    • Ab
  • Agregar a la lista

    0 comentarios

    Ver todos los comentarios

    ¿Lograste tocar?

    3 Tocaron 0 Aún no

    ¡Graba un video tocando Mariá y envíanoslo!

    00:00 / 00:00
    Outros vídeos desta música
    Repetir Calidad Automático
    Outros vídeos desta música
    00:00 / 00:00
    Automático
    OK