Cifra Club

Melhor Bodyboarder da Minha Rua

Forfun

Tablatura: Principal (guitarra)
Já pensou em usar uma coleção de roupas do Cifra Club? Responda as perguntas abaixo e nos ajude nessa missão! →
tono: A
INTRO:

e| ----------------------------------| .
B| ----------------------------------| .
G| --9-------------------------------| .
D| --7---9---7-7-7-7-7-7-7-----------| . 3x
A| ------7---5-5-5-5-5-5-5-----------| .
E| ----------------------------------| .

e| ----------------------------------|
B| ----------------------------------|
G| ----------------------------------|
D| --6-6-6-7-7-7-9-------------------| 
A| --4-4-4-5-5-5-7-------------------|
E| ----------------------------------|

RIFF 1:

e| ----------------------------------|
B| ----------------------------------|
G| --7--5-5-5--3~~~ -----------------|
D| ----------------------------------| 
A| ----------------------------------|
E| ----------------------------------|

           A5              A5   
Quinze pra seis, mas tudo bem,
D5          E5   
Ele acorda cedo de manhã,
A5     A5  [abafado]
E sem ninguém,
D5    E5    
vitamina de maçã.

A5          E5          
Nunca perde tempo,
       F#            D5
Pega a prancha e sai correndo.
A5           E5
Na mochila o raspador,
F#5          D5 
Biscoito e protetor.

           A5          E5                         :
E vai pra praia só de bermuda,                    : 
           F#5                          D5 [x3]    :    [guitarra solo] riff 1
Porque ele é o melhor bodyboarder da minha rua.   :
  A5             F#5  E5  D5  E5 
E é assim que as coisas vão,
F#5       D
Nos dias de verão.
       A5   F#5  E5  D5  E5
A água azul e ele lá, 
F#5            D5
feliz dentro do mar. É só voar!

[INTRO]

      A5            A5   
Anoiteceu, mas tudo bem,
D5         E5             A5
Todo mundo pensa em diversão,
        A5
E elas vêm,
D5           E5
Uma à uma em sua direção.
A5         E5
E ele fica tonto,
     F#5           D5
pega todas, marca ponto!
A5             E5
É o segredo de um viver,
F#5         D5
deixar acontecer!

         A5           E5
E leva a vida que ele queria,              :
         F#5                    D5 [3x]     :    [guitarra solo] riff 1
Dorme na rede e pega onda todo dia!        :
  A5             F#5  E5  D5  E5 
E é assim que as coisas vão,
F#5       D
Nos dias de verão.
       A5   F#5  E5  D5  E5
A água azul e ele lá,
F#5            D5
feliz dentro do mar. É só voar!

SOLOS :

Parte 1.
A B D E
GUITARRA:
e| ----------------------------------|
B| --8------8-------8------8---------|
G| ----7------7------7-------7-------|
D| ----------------------------------| 
A| ----------------------------------|
E| ----------------------------------|

Parte 2.
A B D E
GUITARRA:
e| ----------------------------------|
B| --8-------7-------5------7--------|
G| ----7-------7------5-------7------|
D| ----------------------------------| 
A| ----------------------------------|
E| ----------------------------------|

Parte 3.
A B D E
GUITARRA:
e| ----------------------------------|  
B| --8-8-8-7-7-7-5-5-5-7-7-7---------|  
G| ---7-7---7-7---5-5---7-7----------|  
D| ----------------------------------|  
A| ----------------------------------|  
E| ----------------------------------|  

Parte 4.
A5 G# F# D5 E5
A5 G# F# D5 C# B C# B A5
A5 G# F# D5 E5
A5 D5 E5

           A5          E5                         :
E vai pra praia só de bermuda,                    : 
           F#5                          D5 [x3]    :    [guitarra solo] riff 1
Porque ele é o melhor bodyboarder da minha rua.   :
  A5             F#5  E5  D5  E5 
E é assim que as coisas vão,
F#5       D
Nos dias de verão.
       A5   F#5  E5  D5  E5
A água azul e ele lá, 
F#5            D5          A5
feliz dentro do mar. É só voar!
Composição de Forfun
Colaboración y revision:
61 reproducciones
    • ½ Tono
    • A
    • Bb
    • B
    • C
    • Db
    • D
    • Eb
    • E
    • F
    • F#
    • G
    • Ab
  • Adicionar à lista

    0 comentarios

    Ver todos os comentários

    ¿Conseguiste tocar?

    0 Tocaram 0 Ainda não

    Grave um vídeo tocando Melhor Bodyboarder da Minha Rua e nos envie!

    00:00 / 00:00
    outros vídeos desta música
    repetir qualidade Automático
    Outros vídeos desta música
    00:00 / 00:00
    Automático
    OK