Cifra Club

O Viajante

Forfun

Tablatura: Principal (guitarra)
Já pensou em usar uma coleção de roupas do Cifra Club? Responda as perguntas abaixo e nos ajude nessa missão! →
tono: C
Afinação Drop D

"É, o tempo é uma coisa relativa
Se hoje fosse ontem, amanhã seria hoje
De qualquer forma eu to tranqüilo
Do jeito que tá que tá bom
Como dizia o síndico
Vai saber o que o gorila pensa..."

Riff:
E|-----------------------------------------|
B|-----------------------------------------|
G|-12-12-12--------------------------------|
D|-12-12-12--------------------------------|
A|-10-10-10--------------------------------|
D|-----------12-10-9-10---5-7-5-7----------|

E|-----------------------------------------|
B|-----------------------------------------|
G|-12-12-12--------------------------------|
D|-12-12-12--------------------------------|
A|-10-10-10--------------------------------|
D|-----------12-10-9-10\-------------------|

E|-----------------------------------------|
B|-----------------------------------------|
G|-12-12-12--------------------------------|
D|-12-12-12--------------------------------|
A|-10-10-10--------------------------------|
D|-----------12-10-9-10---5-7-5-7----------|

E|-----------------------------------------|
B|-----------------------------------------|
G|-12-12-12--------------------------------|
D|-12-12-12--------------------------------|
A|-10-10-10--------------------------------|
D|-----------12-10-9-10---7-7-7------------|

E|-----------------------------------------|
B|-----------------------------------------|
G|-12-12-12--------------------------------|
D|-12-12-12--------------------------------|
A|-10-10-10--------------------------------|
D|-----------12-10-9-10---5-7-5-7----------|

E|-----------------------------------------|
B|-----------------------------------------|
G|-12-12-12--------------------------------|
D|-12-12-12--------------------------------|
A|-10-10-10--------------------------------|
D|-----------12-10-9-10\-------------------|

G                    F
Pedi minhas contas, viajei e caí no mundão
G                        F
Vou ver o mundo tendo o mundo como anfitrião

G                  F
Florestas, rios, cidades e litorais
G                         F
Pessoas, sentimentos, tradições e rituais

G                              F
Colocarei meus pés em trilhas, pedras, manguezais
G                        F
Fazendo o elo entre meus filhos e meus ancestrais

G                     F
Serei sincero com meu verdadeiro ser
G                        F
Quero servir, quero ensinar, eu vim pra aprender

Refrão:
(Riff)
Me sinto em casa em qualquer lugar
Mas sou turista em todos
Sou viajante em qualquer lugar
Sou uma parte do todo


Num sonho eu era como o vento e podia voar
Voei pra ver as maravilhas de cada lugar
Dancei com índios, mergulhei entre os corais
Troquei idéia com um coroa que era demais

G                       F
Vi dreadlocks e confetes bailando no ar
G                       F
E três amigas se abraçavam de se transbordar
G                       F
Agradecido, aplaudi o pôr-do-sol
G                       F
Por onde for terei seu fogo como meu farol


Refrão:
(Riff)
Me sinto em casa em qualquer lugar
Mas sou turista em todos
Sou viajante em qualquer lugar
Sou uma parte do todo

G      F  G                 F
Ê Mundão, seu filho venceu o breu
G                       F         G            F
Unifiquei meu corpo ao teu, e já não existe mais 'eu'

Refrão:
(Riff)
Me sinto em casa em qualquer lugar
Mas sou turista em todos
Sou viajante em qualquer lugar
Sou uma parte do todo

Me sinto em casa em qualquer lugar
Mas sou turista em todos
Um viajante interistelar
Sou uma parte do todo
Composição de Forfun
211 reproducciones
    • ½ Tono
    • A
    • Bb
    • B
    • C
    • Db
    • D
    • Eb
    • E
    • F
    • F#
    • G
    • Ab
  • Adicionar à lista

    0 comentarios

    Ver todos os comentários

    ¿Conseguiste tocar?

    5 Tocaram 0 Ainda não

    Grave um vídeo tocando O Viajante e nos envie!

    00:00 / 00:00
    outros vídeos desta música
    repetir qualidade Automático
    Outros vídeos desta música
    00:00 / 00:00
    Automático
    OK