Cifra Club

Palpite

Forfun

Tablatura: Principal (guitarra)
tono: E
Intro: B  C#  E  B
E|--5/7-----------------------------5-4-2-0-------|
B|-------7-5--5--------5/7-------------------0----|
G|--------------4----3---------4-6----------------|
D|-----------------6------------------------------|
A|------------------------------------------------|
E|------------------------------------------------|

B                                     C#
Tô com saudade de você Debaixo do meu cobertor
   E           Em           B
De te arrancar suspiros , fazer amor
B                            C#
Tô com saudade de você Na varanda em noite quente
 E          Em             G#m             C#
E o arrepio frio que dá na gente Truque do desejo
G#m                       C#
Guardo na boca o gosto do beijo
  E           Em            E       Em
Eu sinto a falta de você    Me sinto só
  B                 C#                   E Em       B
E aí, será que você volta? Tudo à minha volta     é triste
  B7                 C#                  E Em    B
E aí, o Amor pode acontecer de novo pra você,   Palpite
E|--5/7-----------------------------5-4-2-0-------|
B|-------7-5--5--------5/7-------------------0----|
G|--------------4----3---------4-6----------------|
D|-----------------6------------------------------|
A|------------------------------------------------|
E|------------------------------------------------|

B                               C#
Tô com saudade de você do nosso banho de chuva
E                 Em             B
Do calor na minha pele, da língua tua
B                               C#
Tô com saudade de você Censurando o meu estilo
E             Em             G#m             C#
As juras de Amor  ao pé do ouvido, truque do desejo
  G#m                     C#
Guardo na boca o gosto do beijo
   E           Em             E        Em
Eu sinto a falta de você      Me sinto só

  B                 C#                  E Em      B
E aí, será que você volta? Tudo à minha volta     é triste
  B7                 C#           E      Em    B
E aí, o Amor pode acontecer de novo pra você, Palpite

  B7                 C#                 E Em      B
E aí, será que você volta? Tudo à minha volta     é triste
  B7                 C#           E      Em    B
E aí, o Amor pode acontecer de novo pra você, Palpite
Colaboración y revision:
  • Iago Gomes
  • Vinicius Terlizzi
37 reproducciones
    • ½ Tono
    • A
    • Bb
    • B
    • C
    • Db
    • D
    • Eb
    • E
    • F
    • F#
    • G
    • Ab
  • Adicionar à lista

    0 comentarios

    Ver todos os comentários

    ¿Conseguiste tocar?

    0 Tocaram 0 Ainda não

    Grave um vídeo tocando Palpite e nos envie!

    00:00 / 00:00
    outros vídeos desta música
    repetir qualidade Automático
    Outros vídeos desta música
    00:00 / 00:00
    Automático
    OK