Cifra Club

Sócrates e a Deusa Música

Forfun

Tablatura: Principal (guitarra)
tono: Bb
base da musica: A F G A A F G A


A           F
Lá ela amanhece
           C            Am
Trás bom agouro, é perfumada
A               F
Com alfazema e penas de pavão
         C              Am
Abre os caminhos pra caminhada

Refrão :

A                F
Sei, só sei que nada sei
            C   Am
Só sei que nada
A                F
Sei, só sei que nada sei
           C    Am
Não quero nada

A F C Am 1x

A              F
Dorme entre as palmeiras
            C          Am
Pra contemplar a madrugada
A            F
Vence com a falange
        C              Am
Dos orixás, anjos e fadas

Refrão:

A                F
Sei, só sei que nada sei
            C  Am
Só sei que nada
A                F
Sei, só sei que nada sei
           C   Am
Não quero nada

solo: E|-------------------------------------------------------------------------
      B|----------------------------------------10h11p1110h11p10--------10-------
      G|---99999991010109999999--9999999101010-----------------------11----10----
      D|-------------------------------------------------------------------------
      A|-------------------------------------------------------------------------
      E|-------------------------------------------------------------------------

      E|-------------------------------------------------------------------------
      B|--------------------------15*-15p14--------------------------------------
      G|---99999991010109999999--------------15p14-------------------------------
      D|---------------------------------------------15p14-----------------------
      A|-----------------------------------------------------15p15---------------
      E|------------------------------------------------------------14p15--------

      E|------------------------------------13h15--13b15--13b15------------------
      B|-----------------------------13h15---------------------------------------
      G|-----------------------13h15---------------------------------------------
      D|----------------13h15----------------------------------------------------
      A|---------13h15-----------------------------------------------------------
      E|---13h15-----------------------------------------------------------------


Refrão :

A                G
Sei, só sei que nada sei
            D   Bm
Só sei que nada
A                G
Sei, só sei que nada sei
           D  Bm
Não quero nada

base da musica do começo vlw
Composição de Danilo / Rodrigo / Vitor / Nicolas
Colaboración y revision:
  • beto gates
  • Pedro Redó
36 reproducciones
    • ½ Tono
    • A
    • Bb
    • B
    • C
    • Db
    • D
    • Eb
    • E
    • F
    • F#
    • G
    • Ab
  • Adicionar à lista

    0 comentarios

    Ver todos os comentários

    ¿Conseguiste tocar?

    3 Tocaram 0 Ainda não

    Grave um vídeo tocando Sócrates e a Deusa Música e nos envie!

    00:00 / 00:00
    outros vídeos desta música
    repetir qualidade Automático
    Outros vídeos desta música
    00:00 / 00:00
    Automático
    OK