Cifra Club

Tarde Demais Pra Tentar

Forfun

Cifrado: Principal (guitarra y guitarra eléctrica)
Já pensou em usar uma coleção de roupas do Cifra Club? Responda as perguntas abaixo e nos ajude nessa missão! →
tono: A
A     E                  F#m         D
Não aguentei depois da 1ª vez q eu tivi...
             A
e perguntei

E|-----7-----7-----7-----7-----2----2-----2-----4-----4-----4-----------0---|
B|---5-----5-----5-----5-----5----5-----5-----5-----5-----5-----------------|
G|-4-----4-----4-----4-----4----4-----4-----4-----4-----4-------------------|
D|--------------------------------------------------------------------------|

A        E
quem é você...
      F#m         D
quero sabe.. vc pode me dizer..

          ( A E F#m D )
E|-5-4-----5-4----5-4---5-4------------------------5---------|
B|-----5------5------5------5-7--7--5-7---9--10-9-5----------|
G|-----------------------------------------------------------|

A     E                  F#m         D
Não aguentei depois da 1ª vez q eu tivi...
             A
e perguntei
A        E
quem é você...
      F#m         D
quero sabe.. vc pode me dizer..

Bm                D
eh como uma pergunta..
                A
eu quero uma resposta..
         E          F#m             D        D D D D
será de mim.. q vc gosta.. será de mim..

A  E        F#m                D            A
Já é tarde demais pra correr atrás e me expressar.
           E                     F#m
é tanta coisa que eu queria te fla..
           D                   A
pra te conquista.. pra te conquistaaaaa....

          (A E F#m D)
E|-5-4-----5-4----5-4---5-4----5-4---5-4----------------------------|
B|-----5------5------5------5-----5------5-7-7--5-7---5-------------|
G|------------------------------------------------------------------|

A            E             F#m              D               A
quando eu recebi.. a má noticia.. me deu vontade de morre...

E|-----7-----7-----7-----7-----2----2-----2-----4-----4-----4-----------0------|
B|---5-----5-----5-----5-----5----5-----5-----5-----5-----5--------------------|
G|-4-----4-----4-----4-----4----4-----4-----4-----4-----4----------------------|
D|-----------------------------------------------------------------------------|
               E                 F#m                   D
sentimento estranho.. frio na barriga...acho que...me
             F#m
apaixonei...

F#m    D           A                E         F#m
não acredito que voltei.. só por causa... de vc...
       D              A            E           D           D         D D D D
mesmo sem ter alguma chance de te ter.. de te ter.. de te ter..


A  E        F#m               D            A
já é tarde demais pra correr atrás e me expressar..
          E                   F#m                D
eh tanta coisa q eu queria te flar pra te conquistar.. pra te
              A
conquistar...

          ( A E F#m D )
E|-5-4-----5-4----5-4---5-4----5-4---5-4----5-4---------------------------
B|-----5------5------5------5-----5------5------5-7-7--5-7---5------------
G|------------------------------------------------------------------------

E|-5-4-----5-4----5-4---5-4----5-4---5-4----5---4-------------------------
B|-----5------5------5------5-----5------5---------5---7---5--------------
G|------------------------------------------------------------------------

           A
 pra te conquistar.
Compositor não encontrado.
Colaboración y revisión:
35 vistas
    • ½ Tono
    • A
    • Bb
    • B
    • C
    • Db
    • D
    • Eb
    • E
    • F
    • F#
    • G
    • Ab
  • Agregar a la lista

    0 comentarios

    Ver todos los comentarios

    ¿Lograste tocar?

    1 Tocaron 0 Aún no

    ¡Graba un video tocando Tarde Demais Pra Tentar y envíanoslo!

    00:00 / 00:00
    Outros vídeos desta música
    Repetir Calidad Automático
    Outros vídeos desta música
    00:00 / 00:00
    Automático
    OK