Cifra Club

Terra Do Nunca

Forfun

Cifrado: Principal (guitarra y guitarra eléctrica)
Já pensou em usar uma coleção de roupas do Cifra Club? Responda as perguntas abaixo e nos ajude nessa missão! →
tono: G
Intro:

|-------------------------------------------------------------------|e
|-------------------------------------------------------------------|B
|-------------------------------------------------------------------|G
|-------------------------------------------------------------------|D
|---------------------5-5-5-5-2h3p2p0---------------5-5-5-5-2-3-----|A
|-8/3-3-3-3-3-2-3-2-0----------------3-3-3-3-2-3-2-0----------------|E

Intro Base: G5  D5  G5  D5  B5  C5

Versos:

G5   D5      *E5              C5            G5 
Não sou perfeito sou mais um em um milhão
 D5    E5                C5
Adolescente estranho e fora do padrão   

     (Primeiro Verso Abafado)
        
        Repete Intro 1x

G5   D5    E5             C5            G5   
Desde pequeno o mais capeta do jardim
 D5       *E5            C5
Agora eu sinto o peso todo sobre mim
G5            D5 
Dezoito anos inconseqüente
*E5                     C5 
Vc não entende e fala mal da minha tatoo
G5                 D5            *E5
Com a sua família feliz no carro
                       C5
Na sua frente eu vou passar correndo nu 

Refrão:

  G5
E aí
         C5      D5    G5     D5  E5  D5 
Quando o sol então sair eu sei
    *E5           D5 
Que nada me preocupa
C5           D5 
Na terra do nunca
*E5           D5
Não é minha culpa
     C5       D5  
Se a vida é uma ilusão

|------------------------------------------|e
|------------------------------------------|B
|----0----0----0----0----0----0----0----0--|G
|-5-5--5-5--4-4--4-4--5-5--5-5--7-7--7-7---|D
|------------------------------------------|A
|------------------------------------------|E

(dps toca-se a base G5 D5 E5 C5 junto com a tablatura acima)

Hipocrisia e falsidade
Os seus valores são dinheiro e poder
Se ser adulto é desse jeito
Então desculpe eu nunca mais quero crescer

(base igual no 1º verso to k abafado tbm)

(Refrão)

Obs: no refrão tem um solinho que é +- assim

|-------------------------|e
|-------------------------|B
|-0-0-4-0-5-0-7-0---------|G
|-------------------------|D
|-------------------------|A
|-------------------------|E

*Notas De E5 Pra Facilitar pra vcs Na 7ªKsa
Vlw Fi E abraço pra galera da minha banda
Compositor não encontrado.
Colaboración y revisión:
  • arthur valencia
  • Vinicius Terlizzi
  • Felipe muller
107 vistas
    • ½ Tono
    • A
    • Bb
    • B
    • C
    • Db
    • D
    • Eb
    • E
    • F
    • F#
    • G
    • Ab
  • Agregar a la lista

    0 comentarios

    Ver todos los comentarios

    ¿Lograste tocar?

    5 Tocaron 0 Aún no

    ¡Graba un video tocando Terra Do Nunca y envíanoslo!

    00:00 / 00:00
    Outros vídeos desta música
    Repetir Calidad Automático
    Outros vídeos desta música
    00:00 / 00:00
    Automático
    OK