Cifra Club

Tropicália Digital

Forfun

Tablatura: Principal (guitarra)
tono: E
Introdução:

E|--------------------------------------------------
B|--------------------------------------------------
G|--------------------------------------------------
D|----------5---------------------------------------
A|-----5h7-----7--5--7---5/7---0--4--0--5--0--6h7---
E|--0--------------------3/5------------------------

E|-----------------------------------------------------------------
B|-----------------------------------------------------------------
G|-----------------------------------------------------------------
D|----------5------------------------------------------------------
A|-----5h7-----7--5--7------0--4--0--5--0--6--0--7--0--------------
E|--0--------------------5-------------------------------3---------

E|--------------------------------------------------
B|--------------------------------------------------
G|--------------------------------------------------
D|----------5---------------------------------------
A|-----5h7-----7--5--7---5--7---0--4--0--5--0--6h7--
E|--0--------------------3--5-----------------------

E|--------------------------------------------------
B|--------------------------------------------------
G|--------------------------------------------------
D|----------5---------------------------------------
A|-----5h7-----7--5--7---7--------------------------
E|--0--------------------5--------------------------

O SOL E O SAL...
E|--------------------------------------------------
B|--------------------------------------------------
G|---7-7-7-7-7-7-7-7-7-7-7-9p7-7-------------------
D|---9-9-9-9-9-7-9-9-9-9-9----9-------------------
A|------------------------------------------------
E|------------------------------------------------

Portadores do estandarte da cultura tropical
Raízes brasileiras coração universal
Musica naif, peso leve, digital
Vem da exuberância do maciço da Tijuca
Amálgama num povo que sampleia e batuca
Entrando de chinelos no século XXI
Afim de questionar o senso comum

CADA UM COM SEU CADA UM...
E|------------------------------------------------------
B|--12s13-10---------------------------------------------
G|-------------12-12-12-12-12-12-12-12-12-12--14p12--12--
D|-------------14-14-14-14-14-12-14-14-14-14-------14----
A|-------------------------------------------------------
E|-----------------------------------------------------

E|---------------------------------------------------------------------
B|--10--9--8--------------------------------------------------------------
G|--------------9--8--7~----------------------------------------------------
D|--------------------------9--8--7---5--------------------------------------
A|----------------------------------------------------------------------
E|--------------------------------------------------------------------


Cada um com seu cada um, cada macaco no seu galho
Unidade coletiva, “way of life" solidário
Mutatis Mutandis, rapaziada tá voando
Depois da chuveirada fico aqui elucubrando

E|-5----3-----5---3-----------------------------------------
B|-8----5-----8---5-----------------------------------------
G|-7----4-----7---4-----------------------------------------
D|-6----5-----6---5-----------------------------------------
A|-----------------------------------------------------
E|-----------------------------------------------------

Tem que ter conceito, recurso e canhota (repete riff inicial, abafado)

Tsunami, Jabulani, silicone e Rivotril
Wikileaks, trimilique, rolimã no downhill

E|----------------------------------------------------------------------------
B|----------------------------------------------------------------------------
G|------------5--------------------------------------------------------------
D|-----5h7-----7--5--7----7--0--4--0--5--0--6--0--7--0-------------
A|--0------------------------5-----------------------------------3~---0---
E|---------------------------------------------------------------------------

E|---------------------------------------------------------------------------
B|--10--9--8-----------------------------------------------------------------
G|--------------9--8--7~-----------------------------------------------------
D|--------------------------9--8--7---5--------------------------------------
A|---------------------------------------------------------------------------
E|---------------------------------------------------------------------------

O resto do poema nos diremos tocando...
E|--------------------------------------------------
B|--------------------------------------------------
G|---7-7-7-7-7-7-7-7-7-7-7-9p7-7--------------------
D|---9-9-9-9-9-7-9-9-9-9-9----9---------------------
A|--------------------------------------------------
E|--------------------------------------------------

E|-------------------------------------------------------
B|--12s13-10---------------------------------------------
G|-------------12-12-12-12-12-12-12-12-12-12--14p12--12--
D|-------------14-14-14-14-14-12-14-14-14-14-------14----
A|-------------------------------------------------------
E|-------------------------------------------------------

E|--------------------------------------------------------------------
B|--10--9--8----------------------------------------------------------
G|--------------9--8--7~----------------------------------------------
D|--------------------------9--8--7---5-------------------------------
A|--------------------------------------------------------------------
E|--------------------------------------------------------------------
Composição de Danilo Cutrim / Nicolas Fassano / Rodrigo Costa / Vitor Isensee
Colaboración y revision:
  • Philipe Venturini
  • Matheus Marchewski
  • HENRIQUE RODRIGUES
55 reproducciones
    • ½ Tono
    • A
    • Bb
    • B
    • C
    • Db
    • D
    • Eb
    • E
    • F
    • F#
    • G
    • Ab
  • Adicionar à lista

    0 comentarios

    Ver todos os comentários

    ¿Conseguiste tocar?

    1 Tocaram 1 Ainda não

    Grave um vídeo tocando Tropicália Digital e nos envie!

    00:00 / 00:00
    outros vídeos desta música
    repetir qualidade Automático
    Outros vídeos desta música
    00:00 / 00:00
    Automático
    OK