Cifra Club

Valer a pena

Forfun

Tablatura: Principal (guitarra)
tono: Db
(guitar 1)
E|----------------------------------------|
B|----------------------------------------|
G|----------------------------------------|
D|-5/6-6-6-6-5/6-4-4-4-5/6-6-6-6-xxxxxxx--|
A|-3/4-4-4-4-3/4-4-4-4-3/4-4-4-4-xxxxxxx--|
E|----------------------------------------|

E|----------------------------------------|
B|----------------------------------------|
G|---------------8-6-5-6-3----------------|
D|---------5/6-6--------------------------|
A|-6666666-3/4-4-6-4-3-4-1----------------|
E|-4444444--------------------------------|

(guitar 2)
E|-------------------------------------------------------|
B|-------------------------------------------------------|
G|-5h6-6-6-6-5h6-6-6-6-5h6-6-6-6-x-x-x-x-x-8-6-5-6-------|
D|-------------------------------------------------------|
A|-------------------------------------------------------|
E|-------------------------------------------------------|
                                   Pm................
E|-----------------------------------------------|
B|-----------------------------------------------|
G|-6-6-6-6-6-6-6-5h6-6-5-6-8-6-5-6-5h6-8-6-5-6-1-|
D|-----------------------------------------------|
A|-----------------------------------------------|
E|-----------------------------------------------|

Bbm        Gb              Db           F
Eu sempre quis ter mais do que eu podia ter
Bbm          Gb            Db         F
Sigo os meus sonhos não há nada a perder
Gb     Ab
Indecisão no meu olhar
Db     C      Bbm  Ab      Gb
Eu vou onde a vida me levar
Ab               Db    Ab
Não sei se vai valer a pena
A       Em    Ab
Mas vou arriscar

(guitar 1)
E|-------------------------------------------|
B|-------------------------------------------|
G|-------------------------------------------|
D|-5/6-6-6-6-5/6-4-4-4-5/6-6-6-6-5-5-5-5-----|
A|-3/4-4-4-4-3/4-4-4-4-3/4-4-4-4-3-3-3-3-----|
E|-------------------------------------------|

E|----------------------------------------|
B|----------------------------------------|
G|---------------5-6-8-6-5-6--5-8-6-5-6-3-|
D|---------5/6-6--------------------------|
A|-6-6-6-6-3/4-4-3-4-6-4-3-4--3-6-4-3-4-1-|
E|-4-4-4-4--------------------------------|

(guitar 2)
E|---------------------------------------------------------|
B|---------------------------------------------------------|
G|-5h6-6-6-6-5h6-6-6-6-5h6-6-6-5*5*6*6*8*8*6*6*5*5*6*6*8---|
D|---------------------------------------------------------|
A|---------------------------------------------------------|
E|---------------------------------------------------------|

E|---------------------------------------------------------|
B|---------------------------------------------------------|
G|-5h6-6-6-6-5h6-6-6-6-5h6-6-6-6-5-6-8-6-5-6*5h6-8-6-5---1-|
D|-----------------------------------------------------6---|
A|---------------------------------------------------------|
E|---------------------------------------------------------|
(*harmônico)

Bbm         Gb        Db             F
Já estou cansado de ouvir como é que tem que ser
Bbm      Gb             Db         F
Todos me dizem sempre o que devo fazer
Gb       Ab
Então se põe no meu lugar
Db     C      Bbm  Ab      Gb
Eu vou onde a vida me levar
Ab               Db    Ab
Não sei se vai valer a pena
A       Em    Ab
Mas vou arriscar

(solo) Bbm Gb Db F Bbm Gb Db F

E|----------------------------------------------------|
B|-9--7-6-6-9--7-6-6-9--7-6-2h4p2-1-------------------|
G|----------------------------------3~~---------------|
D|----------------------------------------------------|
A|----------------------------------------------------|
E|----------------------------------------------------|
                                                             *(palhetada alternada)
E|----------------------------------------------------|
B|-9--7-6-6-7-9--7-6-6---9*-7*-6*-7*-6*---6*----------|
G|---------------------------------8*---8*-6*-8*------|
D|----------------------------------------------------|
A|----------------------------------------------------|
E|----------------------------------------------------|
E|----------------------------------------------------|
B|----------------------------------------------------|
G|-6*-5*-3*-5*-3*--3h5p3------------------------------|
D|-----------6*---------------------------------------|
A|----------------------------------------------------|
E|----------------------------------------------------|

Gb       Ab
Indecisão no meu olhar
*Db     *C      *Bbm  Ab      Gb
Eu vou onde a vida me levar
Ab               Eb    Bb   Ab
Não sei se vai valer a pena
Composição de Danilo Cutrim / Nicolas Cesar / Rodrigo Costa / Vitor Isensee
34 reproducciones
    • ½ Tono
    • A
    • Bb
    • B
    • C
    • Db
    • D
    • Eb
    • E
    • F
    • F#
    • G
    • Ab
  • Adicionar à lista

    0 comentarios

    Ver todos os comentários

    ¿Conseguiste tocar?

    1 Tocaram 0 Ainda não

    Grave um vídeo tocando Valer a pena e nos envie!

    00:00 / 00:00
    outros vídeos desta música
    repetir qualidade Automático
    Outros vídeos desta música
    00:00 / 00:00
    Automático
    OK