Cifra Club

Aprenda

Eu Me Rendo

Forró Noda De Caju

Tablatura: Principal (guitarra)
Tom: C
Intro: Am  F/A  Am  E4  E

   Am                              F/A
E|-----5-5-----5-7-----7--7------|-----5-5-----5-7-----7--7------
B|-------------------------------|-----6-------6-----------------
B|-------------5-----------------|---5-------5-------------------
D|-----7-----7-------------------|-3-----------------------------
A|---7---------------------------|-------------------------------
E|-5-----------------------------|-------------------------------

   Am                              E4       E      (E9)    (E)
E|-----5-5-----5-7-----7--7------|-5~------4~------2~------------
B|-------------------------------|-----5-------5-------5---5~----
B|-------------5-----------------|---3---3---3---3---3---3-------
D|-----7-----7-------------------|-2-------2-------2-------2-----
A|---7---------------------------|-------------------------------
E|-5-----------------------------|-------------------------------

[Recitante]
     Am            G/B
Quem é que vai me proteger?
          C             F
Quem é capaz de me aquecer?
        Dm            Bb
E quem vai cuidar de mim?
       E
Eu preciso de você!
    Am       G/B
Distante de ser feliz
       C           F
Eu procuro explicação
        Dm           Bb
E tudo só me leva a crer
         E4         E
Que é você meu infinito azul...
 -I love you...

[Refrão]
   Am
Em outras bocas que eu beijei,
   F
O teu sabor não encontrei
   C
Desisto
               G            E4    E
Porque não consigo te esquecer assim
     Am
Não sei fingir, não sou atriz
   F
O teu amor me faz feliz
    C
Já suportei demais
         G
Eu não aguento
E5+/G#        Am    (F)
       Eu me rendo!

[Recitante]
 Am   G/B
Aonde quer que eu vá,
     C             F
Solidão é como um rio,
              Dm           Bb
Que eu não consigo atravessar
          E
Se não tiver o seu amor
      Am          G/B
É um mar de incerteza
         C           F
Que invadiu o meu caminho
      Dm          Bb
É o avesso dessa dor
         E4        E
Que eu quero resgatar pra mim
    (Pra ter você!)

[Refrão]
   Am
Em outras bocas que eu beijei,
   F
O teu sabor não encontrei
   C
Desisto
               G            E4    E
Porque não consigo te esquecer assim
     Am
Não sei fingir, não sou atriz
   F
O teu amor me faz feliz
    C
Já suportei demais
         G
Eu não aguento
E5+/G#        Am    F
       Eu me rendo!

[Ponte 1]
          Dm           E4
E é muito mais que um sonho
     E    Am              G       F
Meu Deus!    Como eu te quero, baby!
   Dm           B/D
É forte demais não dá pra conter
   E4           E
A força desse amor
  E4        F
- Eu me rendo!

[Refrão]
   Am
Em outras bocas que eu beijei,
   F
O teu sabor não encontrei
   C
Desisto
               G            E4    E
Porque não consigo te esquecer assim
     Am
Não sei fingir, não sou atriz
   F
O teu amor me faz feliz
    C
Já suportei demais
         G
Eu não aguento
E5+/G#        Am    F
       Eu me rendo!

[Ponte 2]
    Am     G/B
Eu sei não vai
     C            F
Ser fácil você me entender,
         Dm     Bb
Mesmo assim eu vim
        E
Pra te falar que me rendo, meu amor
Colaboración y revision:
  • fabricio silva
6 reproducciones
    • ½ Tom
    • A
    • Bb
    • B
    • C
    • Db
    • D
    • Eb
    • E
    • F
    • F#
    • G
    • Ab
  • Adicionar à lista

    0 comentarios

    Mostrar mais comentários

    ¿Conseguiste tocar?

    0 Tocaron 0 Ainda não

    Grave um vídeo tocando Eu Me Rendo e mande pra gente!

    00:00 / 00:00
    outros vídeos desta música
    repetir qualidade Automático
    Outros vídeos desta música
    00:00 / 00:00
    Automático
    OK