Cifra Club

Dolla

Fort Minor

Cifrado: Principal (guitarra y guitarra eléctrica)
tono: C
Hook:

e|--------------|------------------------|
B|--------------|------------------------|
G|--------------|------------------------| 
D|--7-7-5-------|-----5-----7------------|
A|--------7-----|-5h7---5h7--------------|
E|----------8/5-|------------------------|

e|--------------|------------------------|
B|--------------|------------------------|
G|--------------|------------------------| 
D|--7-7-5-------|-----5-----7------------|
A|--------7-----|-5h7---5h7--------------|
E|----------8/5-|------------------------|

repeat (ALOT)

Sound familiar? It's the intro from "The Ocean" by Led Zeppelin.



00:00 / 00:00
Otros videos de esta canción
Repetir
Otros videos de esta canción
Composición de Mike Shinoda / Styles Of Beyond
13 vistas
    • ½ Tono
    • A
    • Bb
    • B
    • C
    • Db
    • D
    • Eb
    • E
    • F
    • F#
    • G
    • Ab
  • Agregar a la lista

    0 comentarios

    Ver todos los comentarios
    00:00 / 00:00
    OK