Cifra Club

Aprenda

Broadway

Foxboro Hot Tubs

Tablatura: Principal (guitarra)
Tom: D
Main Riff:
E|---------------------------------------|
B|---------------------------------------|
G|---------------------------------------|
D|--7----7--5--0--5--7----7--5--0--5--7--|
A|--7----7--5--0--5--7----7--5--0--5--7--|
E|--5----5--3--0--3--5----5--3--0--3--5--|
Main Riff #2: (linked with the first riff)
E|---------------------------------------|
B|---------------------------------------|
G|--7----7--5--0--5--7----7--5--0--5-----|
D|--7----7--5--0--5--7----7--5--0--5-----|
A|--5----5--3--0--3--5----5--3--0--3-----|
E|---------------------------------------|
Chorus
         EM          D      A       EM
E|---------------2-2-2-2-----------------------------------------------------|
B|---------------3-3-3-3--2-2------------------------------------------------|
G|---------------2-2-2-2--2-2------------------------------------------------|
D|--2-2-2-2-2-2-----------2-2--2-2-2-2-2-2-----------------------------------|
A|--2-2-2-2-2-2----------------2-2-2-2-2-2-----------------------------------|
E|--0-0-0-0-0-0----------------0-0-0-0-0-0-----------------------------------|
Solo:
E|-------------------------------------------|
B|-------------------------------------------|
G|--666666666/7/9\77-666-44-2-4-6-4-2-4------|
D|-------------------------------------------|
A|--444444444/5/7\55-444-22-0-2-4-2-0-2------|
E|-------------------------------------------|

E|----------------------------------------------------------|
B|----------------------------------------------------------|
G|--121212121212--141414-141414---121212--1212\11/12/11-9---|
D|----------------------------------------------------------|
A|--101010101010--121212-121212---101010--1010\9/-10/-9-7---|
E|----------------------------------------------------------|

E|--000000-0000000000-000000-0000000000-000000-00000000-|
B|--555555-0233333322-555555-0233333322-555555-02333333-|
G|------------------------------------------------------|
D|------------------------------------------------------|
A|------------------------------------------------------|
E|------------------------------------------------------|

SONG ORDER:
Main Riff #1 x 8 (intro)
Main Riff #1 x 3
Main Riff #2 x 3
Main Riff #1 x 3
Main Riff #2 x 3
Chorus x4
(REPEAT)



LYRICS:
I, I'm just killing time now
I do it all the time now
and it's killing me

I, I polish off the bottle
I'm throwing down the throttle
Drinking gasoline

Now I'm on my way
Driving down Broadway
Wasting all my time
And I won't be late
Cause I'm on the brake(?)
So don't hesitate
Never make it out
And it's killing me

Do, Do you get the feeling?
That you've been bleeded (?)
Cause now you're bleeding me

You, You're spilling all the wine now
On Hollywood and Vine now
It's Lushotology

Now I'm on my way
Driving down Broadway
Wasting all my time
And I won't be late
Cause I'm on the brake(?)
So don't hesitate
Never make it out
and it's killing me

and it's killing me

(GUITAR SOLO)

I, I'm just killing time now
I do it all the time now
and it's killing me

I, I polish off the bottle
I'm throwing down the throttle
Drinking gasoline

Now I'm on my way
Driving down Broadway
Wasting all my time
And I won't be late
Cause I'm on the brake
So don't hesitate
Never make it out
And it's killing me (x3)
Compositor Foxboro Hot Tubs
Colaboración y revision:
  • Renaldo Ramos
38 reproducciones
    • ½ Tom
    • A
    • Bb
    • B
    • C
    • Db
    • D
    • Eb
    • E
    • F
    • F#
    • G
    • Ab
  • Adicionar à lista

    0 comentarios

    Mostrar mais comentários

    ¿Conseguiste tocar?

    0 Tocaron 0 Ainda não

    Grave um vídeo tocando Broadway e mande pra gente!

    00:00 / 00:00
    outros vídeos desta música
    repetir qualidade Automático
    Outros vídeos desta música
    00:00 / 00:00
    Automático
    OK