Cifra Club

El Mar

Francisca Valenzuela

Cifrado: Principal (guitarra y guitarra eléctrica)
tono: G
Am                   Em
 El mar murmura melodías a la luna
        C                     G
y le cuenta cuando vivía dentro de una figura azul
Am                        Em
 modelando su cuerpo de piel de seda y ojos de cristal
        C                    G
conquistaba todo el mundo al respirar


Am - Em - C - G ( x2)

RIFF 1  (CD O que se repite 2 veces acá)

E|-5-------7---5--|--5------7/8---7--|-5--------5---5---7--5-----8-7----|
B|---5--3---------|----5-3-----------|----5--3----5---5-------5---------|
G|----------------|------------------|----------------------------------|
D|----------------|------------------|----------------------------------|
A|----------------|------------------|----------------------------------|
E|----------------|------------------|----------------------------------|


Am                     Em
 Inútil era confesar que ella pertenecía al mar
     C                   G
y que no era nada más que agua
Am                      Em
 huyendo de la prisión dorada
   C                            G
sola llamaba para que presentará su figura azul


(Acá acompaña el RIFF 1 junto al coro(?)... es un coro según yo jajaj xD )



   RIFF 1........
    Am                       Em
Cantaba canciones a las estrellas
C                    G
perforando el cielo
      Am                 Em
recibiendo lágrimas de las
                      C               G
nubes húmedas que besaban sus labios         [x2]


(RIFF 2)
Am        Em        C         G
En verdad

RIFF 2

E|-5~--/12~--/10~---/12~---------|
B|-5~--/12~--/10~---/12~---------|
G|-5~--/12~--/10~---/12~---------| G          X 2
D|-------------------------------|
A|-------------------------------|
E|-------------------------------|


Am                    Em
Y cantaba canciones a las estrellas
             C                     G
perforando el cielo con su tristeza
      Am                  Em
recibiendo lágrimas de las nubes húmedas
         C               G
que besaban sus labios


(Aca tenemos otroS RIFF's, pero no estoy
 seguro de como es en realidad jajajaxD :'(  )



RIFF 3 (la tercera parte de este Riff se repite varias veces al final)

     (Parte 1 )
E|------7-----7---8---7--|
B|-10------10------------|
G|-----------------------|
D|-----------------------|
A|-----------------------|
E|-----------------------|

     (Parte 2)
E|------7---8--10-12-10-8-10--|
2|10--------------------------|B
G|----------------------------|
D|----------------------------|
A|----------------------------|
E|----------------------------|

          (Parte 3)
E|----12-----12------12------12--|
B|-10---| 10------10------10------|B
G|-------------------------------|
D|-------------------------------|
A|-------------------------------|
E|-------------------------------|




 RIFF 3....
Am                    Em
Y cantaba canciones a las estrellas
             C                     G
perforando el cielo con su tristeza
      Am                  Em
recibiendo lágrimas de las nubes húmedas
         C               G
que besaban sus labios


Am         Em     C      G   PARTE 3 del RIFF 3 (CONSTANTEMENTE)
En verdad


Am        Em     C      G   PARTE 3 del RIFF 3 y al final viene como esto:
En verdad

E|----12----12---|----12/13p12--10p12-----12--|
B|-10----10------|-10------------------10-----|



Final  =0 !!


Am  -   Em  -   C   -   G  +  RIFF 2

Am  -   Em  -   C   -   G -   Am  +  RIFF 2**


RIFF 2**
E|-/5~---/12~--/10~---/12~--|----/12~-----/17~---|
B|-/5~---/12~--/10~---/12~--|----/12~-----/17~---|
G|-/5~---/12~--/10~---/12~--|----/12~-----/17~---|
D|--------------------------|--------------------|
A|--------------------------|--------------------|
E|--------------------------|--------------------|


Fin


Espero que les sirva de algo esta pequeña colaboración
de una buena canción de la Fran Valenzuela
Ojala este bien los acordes y los Riff's , Si no están correctos...
creo que se acercan jajaj xd
00:00 / 00:00
Otros videos de esta canción
Repetir
Otros videos de esta canción
Compositor no encontrado.
21 vistas
    • ½ Tono
    • A
    • Bb
    • B
    • C
    • Db
    • D
    • Eb
    • E
    • F
    • F#
    • G
    • Ab
  • Agregar a la lista

    0 comentarios

    Ver todos los comentarios

    ¿Lograste tocar?

    0 Tocaron 0 Aún no

    ¡Graba un video tocando El Mar y envíanoslo!

    00:00 / 00:00
    OK