Cifra Club

Adelita

Francisco Tárrega

Cifrado: Principal (guitarra y guitarra eléctrica)
tono: E
Adelita - Francisco Tárrega

Transcrito por João Bracht


|--12--11--7----------|--10--8-----------------|--8--7----------------|-------------0-----7-------|
|---------------8-----|---------7--------------|---------------8------|--7-------0-----8----------|
|---------------9-----|---------------9--------|----------8-----------|-------9-------------------|
|---------------------|---------------10-------|----------------------|---------------------------|
|---------------------|---0--------------------|----------------------|---------------------------|
|---0-----------------|------------------------|--7-------------------|--0------------------------|

|--12--11--7----------|--10--8-----------------|--8----7----------------------|----0--------------|
|---------------8-----|---------7--------------|---------------------8-----5--|----0--------------|
|---------------9-----|---------------9--------|------------8-----------------|----0--------------|
|---------------------|---------------10-------|------------------------------|-------------------|
|---------------------|---0--------------------|------------------------------|-------------------|
|--0------------------|------------------------|--7---------------------------|---------0---------|

|--12--11--7----------|--10--8-----------------|--8--7----------------|-------------0-----7-------|
|---------------8-----|---------7--------------|---------------8------|--7-------0-----8----------|
|---------------9-----|---------------9--------|----------8-----------|-------9-------------------|
|---------------------|---------------10-------|----------------------|---------------------------|
|---------------------|---0--------------------|----------------------|---------------------------|
|---0-----------------|------------------------|--7-------------------|--0------------------------|

|--12--11--7----------|--10--8-----------------|--8----7----------------------|----0--------------|
|---------------8-----|---------7--------------|---------------------8-----5--|----0--------------|
|---------------9-----|---------------9--------|------------8-----------------|----0--------------|
|---------------------|---------------10-------|------------------------------|-------------------|
|---------------------|---0--------------------|------------------------------|-------------------|
|--0------------------|------------------------|--7---------------------------|---------0---------|

|--4------7-----------|--4------7--------------|--4---7---12---12---11---12---11---9---9---11-----|
|------5-----5---7----|------5-----5---7-------|--5-----------------------------------------------|
|------4-----4--------|------4-----4-----------|--4---------------------------9-------------------|
|------6--------------|------6-----------------|--------------------------------------------------|
|------------0--------|------------0-----------|------------------------------9-------------------|
|--0------------------|--0---------------------|--0-----------------------------------------------|

|---9--7--5-----------|-------------------------0---------|--------------------------|----0-------|
|------------7-----0--|---------0-------------------------|---0------2-0---------4---|----0-------|
|---8-----------8-----|---1----------13---8-----------3---|----------2-1---------2---|----1-------|
|---7-----------------|-------------------------8---------|----------------------4---|----2-------|
|---------------------|-----------------------------------|---2------------------2---|------------|
|---7-----------------|---0---------------------9---------|--------------------------|---------0--|

|--12--11--7----------|--10--8-----------------|--8--7----------------|-------------0-----7-------|
|---------------8-----|---------7--------------|---------------8------|--7-------0-----8----------|
|---------------9-----|---------------9--------|----------8-----------|-------9-------------------|
|---------------------|---------------10-------|----------------------|---------------------------|
|---------------------|---0--------------------|----------------------|---------------------------|
|---0-----------------|------------------------|--7-------------------|--0------------------------|

|--12--11--7----------|--10--8-----------------|--8----7----------------------|----0--------------|
|---------------8-----|---------7--------------|---------------------8-----5--|----0--------------|
|---------------9-----|---------------9--------|------------8-----------------|----0--------------|
|---------------------|---------------10-------|------------------------------|-------------------|
|---------------------|---0--------------------|------------------------------|-------------------|
|--0------------------|------------------------|--7---------------------------|-------------------|
Compositor no encontrado.
Colaboración y revisión:
  • João Bracht
961 vistas
    • ½ Tono
    • A
    • Bb
    • B
    • C
    • Db
    • D
    • Eb
    • E
    • F
    • F#
    • G
    • Ab
  • Agregar a la lista

    0 comentarios

    Ver todos los comentarios

    ¿Lograste tocar?

    6 Tocaron 6 Aún no

    ¡Graba un video tocando Adelita y envíanoslo!

    00:00 / 00:00
    Otros videos de esta canción
    Repetir Calidad Automático
    Otros videos de esta canción
    00:00 / 00:00
    Automático
    OK