Cifra Club

Gran Vals

Francisco Tárrega

Cifrado: Principal (guitarra y guitarra eléctrica)
tono: F#m
E|----|---------|---------|2--------|4--------|4-----5--|5-----4--|
B|--2-/5--------|7--------|---2--2--|---2--2--|---2-----|---2-----|
G|----|---6--6--|---6--6--|---2--2--|---2--2--|---2-----|---2-----|
D|----|---7--7--|---7--7--|---------|---------|---------|---------|
A|----|0--------|---------|0--------|---------|0--------|---------|
E|----|---------|0--------|---------|0--------|---------|0--------|

e|4h2-------|---------|2--------|4-----5--|9--------|7--------|
B|----3--3--|---------|---3--3--|---3-----|---9--9--|---9--9--|
G|----4--4--|---------|---4--4--|---4-----|---7--7--|---7--7--|
D|----------|---------|---------|---------|---------|---------|
A|2---------|2--4--5--|---------|2--------|---------|7--------|
E|----------|---------|0--------|---------|0--------|---------|

e|12h10-----|9h7-------|7h5-------|--------|---------|---------|
B|-------9--|----------|-------5--|------2-/5--------|7--------|
G|----11----|----7--9--|----6-----|--------|---6--6--|---6--6--|
D|----------|----------|----------|--------|---7--7--|---7--7--|
A|----------|----------|0---------|7*------|0--------|---------|
E|0---------|0---------|----------|--------|---------|0--------|

E|2--------|4--------|4--------|5--------|12--------|10--------|
B|---2--2--|---2--2--|---2--2--|---2--2--|---12--12-|---12--12-|
G|---2--2--|---2--2--|---2--2--|---2--2--|---11--11-|---11--11-|
D|---------|---------|---------|---------|0---------|0---------|
A|0--------|---------|0--------|0--------|----------|----------|
E|---------|0--------|---------|---------|----------|----------|

E|---------|10---------|9--------|---------|---------|7--------|
B|7--------|---10--10--|---10-10-|5--------|7--------|---9--9--|
G|---7--7--|---10--10--|---9--9--|---6--6--|---8--8--|---7--7--|
D|---9--9--|0----------|---------|---7--7--|---9--9--|---------|
A|---------|-----------|7--------|---------|---------|7--------|
E|7--------|-----------|---------|0--------|0--------|---------|

E|5--------|----------|
B|5--------|----------|
G|6--------|----------|
D|---------|----------|
A|----7----|----------|
E|5-----9--|-5--------|

Compositor no encontrado.
Colaboración y revisión:
  • João Albuquerque
181 vistas
    • ½ Tono
    • Am
    • Bbm
    • Bm
    • Cm
    • C#m
    • Dm
    • Ebm
    • Em
    • Fm
    • F#m
    • Gm
    • G#m
  • Agregar a la lista

    0 comentarios

    Ver todos los comentarios

    ¿Lograste tocar?

    4 Tocaron 0 Aún no

    ¡Graba un video tocando Gran Vals y envíanoslo!

    00:00 / 00:00
    Otros videos de esta canción
    Repetir Calidad Automático
    Otros videos de esta canción
    00:00 / 00:00
    Automático
    OK