Cifra Club

Malaguena

Francisco Tárrega

Cifrado: Principal (guitarra y guitarra eléctrica)
tono: C
Email: LiquI*
Tuning: Standard 
 Finger picked, nylon gtr.
     ~ = trill

     ~
e|---0---------------------------------|
B|---0---0---3--1--0---1--------3-1-0--|
G|---1-------2---------2--2-1-2--------|
D|---2-------3---------3---------------|
A|---2---------------------------------|
E|---0---------------------------------|

e|---0--------|
B|---0--------|
G|---1--------|
D|---2--2--2--|
A|---2--2--2--|
E|---0--0--0--|
        /
        /
Compositor no encontrado.
312 vistas
    • ½ Tono
    • A
    • Bb
    • B
    • C
    • Db
    • D
    • Eb
    • E
    • F
    • F#
    • G
    • Ab
  • Agregar a la lista

    0 comentarios

    Ver todos los comentarios

    ¿Lograste tocar?

    0 Tocaron 0 Aún no

    ¡Graba un video tocando Malaguena y envíanoslo!

    00:00 / 00:00
    Otros videos de esta canción
    Repetir Calidad Automático
    Otros videos de esta canción
    00:00 / 00:00
    Automático
    OK