Cifra Club

Prelude 15 In E

Francisco Tárrega

Cifrado: Principal (guitarra y guitarra eléctrica)
tono: E
(1)IV................II...         II...

E|-------------------2-4-5-|-4-----2-----0===========|
B|-5-----5-----5-----2-----|-0-----4-----0===========|
G|-4-----6-----4-----2-----|-1-----2-----1===========|
D|-6-----6-----6-----------|-------------------2-----|
A|-7-----4-----------0-----|-2-----2-----------------|
E|-------------4-----------|-------------0-----------|
   | | | | | | | | | | | |   | | | | | | | | | | | |
R  2     2     2     1 3 4   4     1     1     3
   1     4     1     1       1     4
   3     3     3     1       2     1
   4     1     1                   1

(3)IV..........II.........               IV..........

E|-------4-----4-----------|-------------------------|
B|-4-----------2-----2-4-5-|-4-----4-----4===========|
G|-5-----5-----------------|-2-----3-----5===========|
D|-6-----4-----2-----2-----|-4-----5-----6-----------|
A|-------------------4-----|-------------------------|
E|-------------------------|-------------------4-----|
   | | | | | | | | | | | |   | | | | | | | | | | | |
L  1     1     4     1 3 4   4     2     1     1
   2     2     1     1       1     1     2
   3     1     1     2       3     3     3

(5)                  II...               VII..........

E|-0-----0-----0-----------|-------0-----7===========|
B|-------------------2-4-5-|-9-----7-----7===========|
G|-1-----4-----6-----2-----|-------------8===========|
D|-2-----6-----7-----------|-------8-----9===========|
A|-------------------------|-------------------------|
E|-------------------------|-------------------------|
   | | | | | | | | | | | |   | | | | | | | | | | | |
R  1     1     1     1 3 4   4     1     1
   2     3     2     1             2     1
                                         2
                                         4
(7)
  .......                          II...
E|-7-----0-----0-------0---|----7-------------------||
B|-7-----10----9-7h7\9---9-|-9-----4-----5==========||
G|-8-----------------------|-------2---------------*||
D|-------11----9-6h7\9-----|-9-----------6=========*||
A|-------------------------|-------2----------------||
E|-------------------------|-------------0==========||
   | | | | | | | | | | | |   | | | | | | | | | | | |
R  1     2     4 1h4\4   4   4  1  4     1
   1     3     3 1h3\3       3     1     2
   2                               1
Compositor no encontrado.
Colaboración y revisión:
  • Lizandra
82 vistas
    • ½ Tono
    • A
    • Bb
    • B
    • C
    • Db
    • D
    • Eb
    • E
    • F
    • F#
    • G
    • Ab
  • Agregar a la lista

    0 comentarios

    Ver todos los comentarios

    ¿Lograste tocar?

    0 Tocaron 0 Aún no

    ¡Graba un video tocando Prelude 15 In E y envíanoslo!

    00:00 / 00:00
    Otros videos de esta canción
    Repetir Calidad Automático
    Otros videos de esta canción
    00:00 / 00:00
    Automático
    OK