Cifra Club

Prelude 23 In A Minor

Francisco Tárrega

Cifrado: Principal (guitarra y guitarra eléctrica)
tono: Ab
[1] VII................
E|------8---5-------7---3--|------5-----------0------|
B|--5-------6---6-------3--|--5-------6---0-------0--|
G|--5-------7---7----------|--5-------5---7----------|
D|--7-----------5----------|----------0---6-------3--|
A|----------------------2--|--3----------------------|
E|-------------------------|----------------------4--|
    |   |   |   |   |   |     |   |   |   |   |   |

R   1   4   1   2   4   4     3   4   3   4       2
    1       2   3       3     2       1   2       3
    3       3   1       1     1

L   m   a   m   m   a   m     m   a   m   m   a   m
    i       i   i       i     i       i   i       i
    p       p   p       p     p       p   p       p

[7]         *           *                 *
    I.......I...........III........       VIII...

E|-------------------------|----------------------13-|
B|----------4---2---3---6--|--4-h-5---13--11--10-----|
G|--5-p-2---2-----------4--|-------------------------|
D|--2-----------3----------|--5-----------10------0--|
A|--0-----------1----------|--3-----------8----------|
E|----------1-----------3--|----------0--------------|
    |   |   |   |   |   |     |   |   |   |   |   |
R   4       4   2   4   4     2   4   4   4   3   4
    1       2   3       2     3           2
            1   1       1     1           1

L   m   m   m   m   m     m   m   m   m   m   a
    i   i   i       i     i       p   i       p
    p   p   p       p     p           p

[5]
E|--10------5---0----------|-------------------------|
B|--0-------6---8-------6--|--3-------------------3--|
G|------0-----------5------|------0---2---0----------|
D|----------------------0--|----------3---2-------3--|
A|-------------------------|--2---------------3------|
E|-------------------------|----------3--------------|
    |   |   |   |   |   |     |   |   |   |   |   |

R   1       1   4   1   2     2       2   1   2   4
            2                 1       4           3
                                      3

L   m   p   m   m   p   i     m   i   m   m   p   m
    i       i   i       p     p       i   i       p
                                      p

[7]
             I   II......III...II........ II

E|-------------------------|------------------------||
B|--0-------1--------------|------------------------||
G|----------1---2----------|--------------2--------*||
D|--0-------2---2---2---3--|--2-------0---2--------*||
A|--------------3-------3--|--3-----------3---------||
E|------0-------5-------5--|--5---5---5---5---------||
    |   |   |   |   |   |     |   |   |   |   |   |
R           1   1   1   1     1   4   4   1
            1   1       1     2           1
            2   2       4     4           2
                4                         4

L   m   p   m   a   m   m     m   p   m   a
    p       i   m       i     i       p   m
            p   i       p     p           i
                p                         p
Compositor no encontrado.
Colaboración y revisión:
  • Lizandra
87 vistas
    • ½ Tono
    • A
    • Bb
    • B
    • C
    • Db
    • D
    • Eb
    • E
    • F
    • F#
    • G
    • Ab
  • Agregar a la lista

    0 comentarios

    Ver todos los comentarios

    ¿Lograste tocar?

    0 Tocaron 0 Aún no

    ¡Graba un video tocando Prelude 23 In A Minor y envíanoslo!

    00:00 / 00:00
    Otros videos de esta canción
    Repetir Calidad Automático
    Otros videos de esta canción
    00:00 / 00:00
    Automático
    OK