Cifra Club

Prelude In D Minor

Francisco Tárrega

Cifrado: Principal (guitarra y guitarra eléctrica)
tono: G
p = pulgar = thumb
i = indice = index
m = medio = middle
a = anular = ring

[1]

E|------0---5---0-------0----|------0-------0-------0----|
B|----6---6---6---6---6---6--|----8---8---8---8---8---8--|
G|------------------7--------|----------6----------------|
D|--0------------------------|------------------7--------|
A|---------------------------|--0------------------------|
E|---------------------------|---------------------------|
RH  p i m i m i m i p i m i     p i m i p i m i p i m i
LH    2   2 1 2   2 3 2   2       4   4 2 4   4 3 4   4

[3]
E|------0---5---0-------0----|------0---8---0-------0----|
B|----6---6---6---6---6---6--|----8---8---8---8---8---8--|
G|------------------7--------|---------------------------|
D|--0------------------------|------------------10-------|
A|---------------------------|---------------------------|
E|---------------------------|--8------------------------|
RH  p i m i m i m i p i m i     p i m i m i m i p i m i
LH    2   2 1 2   2 3 2   2     1 2   2 3 2   2 4 2   2

[5]

E|------0---5---0-------0----|------0---8---0-------0----|
B|----6---6---6---6---6---6--|----8---8---8---8---8---8--|
G|------------------5--------|---------------------------|
D|--3------------------------|------------------10-------|
A|---------------------------|---------------------------|
E|---------------------------|--8------------------------|
RH  p i m i m i m i p i m i     p i m i m i m i p i m i
LH  1 4   4 3 4   4 3 4   4     1 2   2 3 2   2 4 2   2

[7]
E|--------0-------0-------0--|--------0---0---0---0---0--|
B|------6-------6-------6----|------5---8---5------------|
G|----7-------7-------7------|----6-------------6--------|
D|--8-------7-------6--------|--7-------------------7----|
A|---------------------------|---------------------------|
E|---------------------------|---------------------------|
RH  p i m a p i m a p i m a     p i m a p m p i p m p i
LH  3 2 1   2 3 1   1 3 2       3 2 1   4   1   2   3

[9]

E|------0---5---0-------0----|------0-------0-------0----|
B|----6---6---6---6---6---6--|----8---8---8---8---8---8--|
G|------------------7--------|----------6----------------|

D|--0------------------------|------------------7--------|
A|---------------------------|--0------------------------|
E|---------------------------|---------------------------|
RH  p i m i m i m i p i m i     p i m i p i m i p i m i
LH    2   2 1 2   2 3 2   2       4   4 2 4   4 3 4   4

[11]
E|------0---5---0-------0----|------0---8---0-------0----|
B|----6---6---6---6---6---6--|----8---8---8---8---8---8--|
G|------------------7--------|---------------------------|
D|--0------------------------|------------------10-------|
A|---------------------------|---------------------------|
E|---------------------------|--8------------------------|
RH  p i m i m i m i p i m i     p i m i m i m i p i m i
LH    2   2 1 2   2 3 2   2     1 2   2 3 2   2 4 2   2

[10]

E|------0---5---0-------0----|------0---8---0-------0----|
B|----6---6---6---6---6---6--|----8---8---8---8---8---8--|
G|------------------5--------|---------------------------|
D|--3------------------------|------------------10-------|
A|---------------------------|---------------------------|
E|---------------------------|--8----------0-------------|
RH  p i m i m i m i p i m i     p i m i m i m i p i m i
LH  1 4   4 3 4   4 3 4   4     1 2   2 3 2   2 4 2   2

[12]
E|--------0-------0-------0--|---------------------------|
B|------6-------6-------8----|--6------------------------|
G|----7-------7-------6------|--7------------------------|
D|--8-------6-------7--------|--0------------------------|
A|---------------------------|---------------------------|
E|---------------------------|---------------------------|
RH  p i m a p i m a p i m a     pima
LH  3 2 1   1 3 2   2 1 4       1,2
Compositor no encontrado.
Colaboración y revisión:
  • Lizandra
96 vistas
    • ½ Tono
    • A
    • Bb
    • B
    • C
    • Db
    • D
    • Eb
    • E
    • F
    • F#
    • G
    • Ab
  • Agregar a la lista

    0 comentarios

    Ver todos los comentarios

    ¿Lograste tocar?

    0 Tocaron 0 Aún no

    ¡Graba un video tocando Prelude In D Minor y envíanoslo!

    00:00 / 00:00
    Otros videos de esta canción
    Repetir Calidad Automático
    Otros videos de esta canción
    00:00 / 00:00
    Automático
    OK