Cifra Club

Study In C Major

Francisco Tárrega

Cifrado: Principal (guitarra y guitarra eléctrica)
tono: C
[1]
E|-------0-----3-----0-----|-------0-----3-----0-----|
B|-----1---1-----1-----1---|-----1---1-----1-----1---|
G|---0-------0-----0-----0-|---0-------0-----0-----0-|
D|-------------------------|-------------------------|
A|-3-----------------------|-3-----------------------|
E|-------------------------|-------------------------|
   
[3]
E|-------5-----3-----1-----|-------0-----3-----0-----|
B|-----0---0-----0-----0---|-----1---1-----1-----1---|
G|---0-------0-----0-----0-|---0-------0-----0-----0-|
D|-------------------------|-------------------------|
A|-------------------------|-3-----------------------|
E|-3-----------------------|-------------------------|
 
[5]                          V
E|-------0-----4-----0-----|-------5-----8-----5-----|
B|-----3---3-----3-----3---|-----5---5-----5-----5---|
G|---4-------4-----4-----4-|---5-------5-----5-----5-|
D|-------------------------|-------------------------|
A|-------------------------|-0-----------------------|
E|-0-----------------------|-------------------------|

[7]
E|-------2-----3-----2-----|-------3----------------|
B|-----1---1-----1-----1---|-----0---0--------------|
G|---2-------2-----2-----2-|---0-------0------------|
D|-0-----------------------|------------------------|
A|-------------------------|------------------------|
E|-------------------------|-3-----------3----------|

[9]                                      I....
E|-------1-----3-----1-----|-------0-----1-----0-----|
B|-----0---0-----0-----0---|-----1---1-----1-----1---|
G|---0-------0-----0-----0-|---0-------0-----0-----0-|
D|-------------------------|-------------------------|
A|-------------------------|-3-----------------------|
E|-3-----------------------|-------------------------|
   
[11]
E|-------2-----3-----2-----|-------0-----2-----0-----|
B|-----0---0-----0-----0---|-----0---0-----0-----0---|
G|---2-------2-----2-----2-|---0-------0-----0-----0-|
D|-------------------------|-------------------------|
A|-2-----------------------|-------------------------|
E|-------------------------|-0-----------------------|

[13] I                                   I....
E|-------1-----3-----1-----|-------0-----1-----0-----|
B|-----1---1-----1-----1---|-----1---1-----1-----1---|
G|---2-------2-----2-----2-|---0-------0-----0-----0-|
D|-------------------------|-------------------------|
A|-------------------------|-------------------------|
E|-1-----------------------|-3-----------------------|
  
[15]
E|-------5-----3-----1-----|-------0----------------|
B|-----0---0-----0-----0---|-----1---1--------------|
G|---0-------0-----0-----0-|---0-------0------------|
D|-------------------------|------------------------|
A|-------------------------|-3-----------3----------|
E|-3-----------------------|------------------------|
Compositor no encontrado.
Colaboración y revisión:
  • Bruno Pinheiro
  • Lizandra
212 vistas
    • ½ Tono
    • A
    • Bb
    • B
    • C
    • Db
    • D
    • Eb
    • E
    • F
    • F#
    • G
    • Ab
  • Agregar a la lista

    0 comentarios

    Ver todos los comentarios

    ¿Lograste tocar?

    1 Tocaron 1 Aún no

    ¡Graba un video tocando Study In C Major y envíanoslo!

    00:00 / 00:00
    Otros videos de esta canción
    Repetir Calidad Automático
    Otros videos de esta canción
    00:00 / 00:00
    Automático
    OK