Cifra Club

Cheek To Cheek

Frank Sinatra

Cifrado: Principal (guitarra y guitarra eléctrica)
Selo Cifra Club: esta cifra foi revisada para atender aos critérios oficiais da nossa Equipe de Qualidade.
tono: Em
E|-----------------------------------0---------|
B|-----------------------0---1-0-3-1---3-1-0-3-|
G|---2-0-----2-0-----2-0---2-------------------|
D|-------2-3-----2-3---------------------------|
A|---------------------------------------------|
E|---------------------------------------------|

E|---------------------------------------------|
B|-1-----0-------------------------------------|
G|---2-0---2-------0-2-2-----------------------|
D|-----------3-2-3-------3-3-0-0---------------|
A|-------------------------------3-2-3---------|
E|---------------------------------------------|

E|-----------------------------------0---------|
B|-----------------------0---1-0-3-1---3-1-0-3-|
G|---2-0-----2-0-----2-0---2-------------------|
D|-------2-3-----2-3---------------------------|
A|---------------------------------------------|
E|---------------------------------------------|

E|---------------------------------------------|
B|-1-----0-------------------------------------|
G|---2-0---2-------0-2-2-----------------------|
D|-----------3-2-3-------3-3-0-0---------------|
A|-------------------------------3-2-3---------|
E|---------------------------------------------|


[Bridge]

E|---------------------------------------------|
B|-----------0-3-1-1---------0-3-1---------0-3-|
G|---0-----0---------0-----0-------0-----0-----|
D|-----4-3-------------4-3-----------4-3-------|
A|---------------------------------------------|
E|---------------------------------------------|

E|---------------------------------------------|
B|-1-1-----------------------------------------|
G|-----0-1-2-2---------------------------------|
D|-------------3-------------------------------|
A|---------------2-3---------------------------|
E|---------------------------------------------|

E|---------------------------------------------|
B|-----------0-3-1-1---------0-3-1---------0-3-|
G|---0-----0---------0-----0-------0-----0-----|
D|-----4-3-------------4-3-----------4-3-------|
A|---------------------------------------------|
E|---------------------------------------------|

E|---------------------------------------------|
B|-1-1-----------------------------------------|
G|-----0-1-2-2---------------------------------|
D|-------------3-------------------------------|
A|---------------2-3---------------------------|
E|---------------------------------------------|


[Interlude]

E|---------------------------------------------|
B|---1-1-1-1-1-1-4-------4-3-------3-1---------|
G|---------------------------------------------|
D|-----------------4-4-4-----3-3-3-----2-2-2-0-|
A|---------------------------------------------|
E|---------------------------------------------|


[Verse 2]

E|-----------------------------------0---------|
B|-----------------------0---1-0-3-1---3-1-0-3-|
G|---2-0-----2-0-----2-0---2-------------------|
D|-------2-3-----2-3---------------------------|
A|---------------------------------------------|
E|---------------------------------------------|

E|---------------------------------------------|
B|-1-----0-------------------------------------|
G|---2-0---2-------0-2-2-----------------------|
D|-----------3-2-3-------3-3-0-0---------------|
A|-------------------------------3-2-3---------|
E|---------------------------------------------|
Otros videos de esta canción
    1.030 exhibiciones
      • ½ Tono
      • Am
      • Bbm
      • Bm
      • Cm
      • C#m
      • Dm
      • Ebm
      • Em
      • Fm
      • F#m
      • Gm
      • G#m
    • Agregar a la lista

    Afinación de cifrado

    Afinador online

      OK