Cifra Club

Fly Me To The Moon

Frank Sinatra

Cifrado: Versão 4 (guitarra y guitarra eléctrica)
Selo Cifra Club: esta cifra foi revisada para atender aos critérios oficiais da nossa Equipe de Qualidade.
tono: Am
[Primeira Parte]

Parte 1 de 6
E|-2----------------2-------------------0---------|
B|-0----------------2-------------------2---------|
G|-0-----------3----1----3--------------1---------|
D|-3---2---0-----------------0----3-----2---------|

Parte 2 de 7
E|---------------0-----0-----0-----2--------------|
B|---------------0-----0-----0-----0--------------|
G|------3---1----0-----0-----0-----1--------------|
D|--0------------------2-----1-----0--------------|

Parte 3 de 7
E|---------------2-------------------1------------|
B|---------------2-------------------2------------|
G|--3---1---0---------0---1----------4------------|
D|-----------------------------0------------------|

Parte 4 de 7
E|------------------------------------------------|
B|----------2----0--------1-------1---2-----------|
G|--1---0-------------0-------0------------1------|
D|--------------------0-------0------------0------|

Parte 5 de 7
E|---1--------0-------------------0------0--------|
B|---2--------2-------------------0------0--------|
G|---1--------1-------------------3------0--------|
D|---0--------2------3-----2------2------0--------|

Parte 6 de 7
E|---------2------2--------0------------------1---|
B|-1---2---2------2--------2------------------0---|
G|---------1------1--------1------------3-----1---|
D|-------------------------2------0-----------3---|

Parte 7 de 7
E|------0--------2-------1------------------------|
B|------0--------2-------2------------------------|
G|------0--------2-------0------------------------|
D|------2--------2-------2------------------------|

[Segunda Parte]

Parte 1 de 7
E|-2----------------2-------------------0---------|
B|-0----------------2-------------------2---------|
G|-0-----------3----1----3--------------1---------|
D|-3---2---0-----------------0----3-----2---------|

Parte 2 de 7
E|--------------0-----0-----0-----2---------------|
B|--------------0-----0-----0-----0---------------|
G|---------3----0-----0-----0-----1---------------|
D|-5---2--------------2-----1-----0---------------|

Parte 3 de 7
E|------------------2-------------------1---------|
B|------------------2-------------------2---------|
G|-----3---1---0---------0---1----------4---------|
D|--------------------------------0---------------|

Parte 4 de 7
E|------------------------------------------------|
B|-----------2----0--------1-------1--------------|
G|---1---0-------------0-------0------------------|
D|---------------------0-------0------------------|

Parte 5 de 7
E|---------------1--------0-------------------7---|
B|-2-------------2--------2-------------------7---|
G|--------1------1--------1-------------------7---|
D|--------0------0--------2------3-----2------7---|

Parte 6 de 7
E|---0---------5---------------0------------------|
B|---4---------5---------------2------------------|
G|---3---------5-----8----8----1------------------|
D|---4-----7---8---------------2-----3-----2------|

Parte 7 de 7
E|--------0------------------2------------1-------|
B|--------0------------------2------------2-------|
G|--------0------------------2------------0-------|
D|--------3-----3---5---3----2-----0------2-------|

[Final]

Parte 1 de 7
E|-2----------------2-------------------0---------|
B|-0----------------2-------------------2---------|
G|-0-----------3----1----3--------------1---------|
D|-3---2---0-----------------0----3-----2---------|

Parte 2 de 7
E|--------------0-----0-----0-----2---------------|
B|--------------0-----0-----0-----0---------------|
G|---------3----0-----0-----0-----1---------------|
D|-5---2--------------2-----1-----0---------------|

Parte 3 de 7

E|------------------2-------------------1---------|
B|------------------2-------------------2---------|
G|-----3---1---0---------0---1----------4---------|
D|--------------------------------0---------------|

Parte 4 de 7
E|------------------------------------------------|
B|-----------2----0--------1-------1--------------|
G|---1---0-------------0-------0------------------|
D|---------------------0-------0------------------|

Parte 5 de 7
E|---------------1--------0-------------------7---|
B|-2-------------2--------2-------------------7---|
G|--------1------1--------1-------------------7---|
D|--------0------0--------2------3-----2------7---|

Parte 6 de 7
E|---0---------5---------------0------------------|
B|---4---------5---------------2------------------|
G|---3---------5-----8----8----1------------------|
D|---4-----7---8---------------2-----3-----2------|

Parte 7 de 7
E|--------0--------0---------0------------1-------|
B|--------0--------2---------3------------2-------|
G|--------0--------1---------1------------0-------|
D|--------3--------1---------3------------2-------|
Otros videos de esta canción
79.433 exhibiciones
  • Simplificar cifrado
    • ½ Tono
    • Am
    • Bbm
    • Bm
    • Cm
    • C#m
    • Dm
    • Ebm
    • Em
    • Fm
    • F#m
    • Gm
    • G#m
  • Agregar a la lista

Afinación de cifrado

Afinador online

    Capítulos
    • Tocando a Música
    • Apresentação/Equipamentos
    • Acordes da Música
    • Ritmo da Música
    • Encerramento
    OK