Cifra Club

How To Deal Intro

Frankie J

Chords: Principal (acoustic and electric guitars)
tone: G

----------------------------------------------------------------------------Tabbed by:kulang
Email:*

Okay. If its not right..that's cool. Just tryin to help.

Tuning:standard

| /  slide up
| h  hammer-on

e|--2-----------0------5----------------------------2------------------------|
B|-----------3-------------------3----------------------3--------------------|
G|-------2-----------------------------------4--------------4----------------|
D|--0-----------------------------------4-----------------------4------------|
A|-------------------------------2-------------------------------------------|
E|---------------------------------------------------------------------------|

e|------------------3--------------------------------------------------------|
B|--0-------------------0-------------2-----------2/3--------5---------------|
G|------------0---------------0--------------2-------------------------------|
D|--------0----------------------0---------2---------------------------------|
A|------------------------------------0--------------------------------------|
E|--3------------------------------------------------------------------------|

e|--2----------0---------5--------------9h10p9-------------------------------|
B|---------3------------------------------------10---------------------------|
G|-----2----------------------------------------------9h11---9h11------------|
D|--0------------------------------------------------------------------------|
A|---------------------------------------------------------------------------|
E|---------------------------------------------------------------------------|



===============================================================================
00:00 / 00:00
Other videos of this song
Repeat
Other videos of this song
13 views
    • ½ Tone
    • A
    • Bb
    • B
    • C
    • Db
    • D
    • Eb
    • E
    • F
    • F#
    • G
    • Ab
  • Add to list

Afinação da cifra

Afinador online

    00:00 / 00:00
    OK