Cifra Club

How To Deal

Frankie J

Cifrado: Versão 2 (guitarra y guitarra eléctrica)
Já pensou em usar uma coleção de roupas do Cifra Club? Responda as perguntas abaixo e nos ajude nessa missão! →
tono: D

   D     Bm     G       A            
e|-2--0-5-----0-2-2--------------0|
B|--3----3--3------0--0--3-2--3---|
G|---2----4--4------0--0----2--2--|
D|-0-------4---------0--0----2--2-|
A|-------2-----------------0------|
E|--------------3-----------------|

  D
e|2--0-5-9-10-9--------------------|
B|-3-----------10-6s7-6s7-3--3-----|
G|--2-----------------------0-0-0--|
D|0------------------------0---0---|
A|---------------------------------|
E|------------------------3--------|

Repeat This Through The Whole Song
Composición de Frankie Bautista
    • ½ Tono
    • A
    • Bb
    • B
    • C
    • Db
    • D
    • Eb
    • E
    • F
    • F#
    • G
    • Ab
  • Agregar a la lista

    0 comentarios

    Ver todos los comentarios

    ¿Lograste tocar?

    0 Tocaron 0 Aún no

    ¡Graba un video tocando How To Deal y envíanoslo!

    00:00 / 00:00
    Outros vídeos desta música
    Repetir Calidad Automático
    Outros vídeos desta música
    00:00 / 00:00
    Automático
    OK