Cifra Club

How To Deal

Frankie J

Cifrado: Versão 3 (guitarra y guitarra eléctrica)
Já pensou em usar uma coleção de roupas do Cifra Club? Responda as perguntas abaixo e nos ajude nessa missão! →
tono: D
Tabbed by: *

to the song you'll hear these tabs until the end of the song, hope you guyz like it, enjoy!!,..

        D               Bm              G           A

e|--2-----0--5--|--------2------|------3------|-----------|
B|----3---------|--3-------3----|--3-----3----|--2--3--5--|
G|------2-------|----2-------2--|----0-----0--|-----------|
D|--0-----------|------4--------|-------------|-----------|
A|--------------|--2------------|-------------|--0--0--0--|
E|--------------|---------------|--3----------|-----------|


        D

e|--2-----0--5--|--9--10--9----------------|
B|----3---------|------------10------------|
G|------2-------|----------------9--11--9--|
D|--0-----------|--------------------------|
A|--------------|--------------------------|
E|--------------|--------------------------|


by: Joshua Badong
Composición de Frankie Bautista
    • ½ Tono
    • A
    • Bb
    • B
    • C
    • Db
    • D
    • Eb
    • E
    • F
    • F#
    • G
    • Ab
  • Agregar a la lista

    0 comentarios

    Ver todos los comentarios

    ¿Lograste tocar?

    0 Tocaron 0 Aún no

    ¡Graba un video tocando How To Deal y envíanoslo!

    00:00 / 00:00
    Outros vídeos desta música
    Repetir Calidad Automático
    Outros vídeos desta música
    00:00 / 00:00
    Automático
    OK